Yes Please (tablature)

MuseWiki, wiki for the band Muse
Jump to: navigation, search
      +MUSE-YES PLEASE+

MUSE
YES PLEASE
Hullabaloo Soundtrack (Disc 1)
Tabbed by Paul McDermott

Dropped D (not necessary but improves it somewhat)
First tab so dont be too harsh

Intro:
Part 1
|---------------------------------------------------|
|---------------------------------------------------|
|---------------------------------------------------|
|-0-0-0-0-0-0-0-0-0-0-0-0-0-0-0-0-0-0-0-0-0---------|(not sure on how many)
|-------------------------------------------------0-|
|---------------------------------------------------|

Part 2
|----------------------------------1-1-1-1-1-1-1-1-1-1-1-1-1-1-1-1-1--|
|--3-3-3-3-3-3-3-3-3-3-3-3-3-3-3-3-3-3-3-3-3-3-3-3-3-3-3-3-3-3-3-3-3--|
|--2-2-2-2-2-2-2-2-3-3-3-3-3-3-3-3-3-3-3-3-3-3-3-3-3-3-3-3-3-3-3-3-3--|
|--0-0-0-0-0-0-0-0-0-0-0-0-0-0-0-0-0-0-0-0-0-0-0-0-0-0-0-0-0-0-0-0-0--|
|---------------------------------------------------------------------|
|---------------------------------------------------------------------|

Verse:
Part 1
|-------------------|  |---------------------|
|-------------------|  |---------------------|
|-------------------|  |---------------------|
|-------------------|x1|---------------------|x3
|-------------------|  |---------------------|
|-4----5-0-10-11-12-|  |-0-3-4-5-0--10-11-12-|

Then Part 2
|-------------------|
|-------------------|
|-------------------|
|-------------------|x4
|-------------------|
|-0-3-4-5-0--8-9-10-|

Then repeat part 1 4 times then:

Bridge
|----------------------------------------------------|
|----------------------------------------------------|
|---------10------------10------10--10--10--10-------|
|----------9-------------9-------9---9---9---9-------|x1
|----------8-------------8-------8---8---8---8-------|
|-0-3-55-0-------0-3-55-0----------------------------|
 
Then for CHORUS do INTRO PART 2 four times

Repeat VERSE and CHORUS

Then do VERSE PART 1 at an increasing speed until the end

End on:

|-----|
|-----|
|--6--|
|--5--|
|--4--|
|--5--|


Go back to tablature