The Groove (tablature)

MuseWiki, wiki for the band Muse
Jump to: navigation, search

Guitar

----------------------------------------------------------------------------
                               The Groove – Muse
----------------------------------------------------------------------------
Tabbed by: Stefán Örvarr Sigmundsson

Tuning: Standard (EADGBE)


Intro: (no Guitar)

Verse 1: (Overdrive Guitar)

     Q    E.  S E  E  S S S S    Q    E.  S E  E  E  E
E||---------------------------|-------------------------|
B||---------------------------|-------------------------|
G||-------------2-------------|----------------6--------|
D||-------4--------4----------|-------7-----------------|
A||-------------------4-3-2-L-|--0--------0-4-----5--6--|
E||--2--------2---------------|-------------------------|


                   |--3--| 
  Q    Q.     S  S S  S  S S. T    Q    E  E  E  E  S S E
--------------------------------|---------------------------|
--------------------------------|---------------------------|
--------------------------------|---------------------------|
-------------------7h-9p-7------|-------------9--7----------|
-------7------7h-9---------9--7-|--9----9--L--------9-7-9\--|
--0-----------------------------|---------------------------| repeat x3


  Q    E.  S E  E  S S S S    Q    E.  S E  E  E  E
---------------------------|-------------------------|
---------------------------|-------------------------|
-------------2-------------|----------------6--------|
-------4--------4----------|-------7-----------------|
-------------------4-3-2-L-|--0--------0-4-----5--6--|
--2--------2---------------|-------------------------|


                   |--3--|
  Q    Q.     S  S S  S  S S. T    Q    E  E  E  E  E  E
--------------------------------|-------------------------|
--------------------------------|-------------------------|
--------------------------------|-------------------------|
-------------------7h-9p-7------|-------------7-----------|
-------7------7h-9---------9--7-|--9----9--L-----4--3--2--|
--0-----------------------------|-------------------------|


Chorus: (Overdrive Guitar)

     Q    E.  S E  E  E  E     Q    E.  S E  E  E  E
E||-------------------------|-------------------------|
B||-------------------------|-------------------------|
G||----------------6--------|-------------------------|
D||-------7-----------------|----------------6--------|
A||--0--------0-4-----5--6--|-------7-----------------|
E||-------------------------|--0--------0-4-----5--6--|


  Q    E.  S E  E  E  E     Q    E  E  E  E  E  E     Q    E.  S E  E  E  E
-------------------------|-------------------------|-----------------------|
-------------------------|-------------------------|-----------------------|
-------4--------7--------|-------------------------|----------------6------|
-------------------------|-------------7-----------|-------7---------------|
-----------0-5-----7--8--|--9----9--L-----9--------|--0--------0-4-----5--6|
--7----------------------|------------------9-8-7--|-----------------------|


  Q    E.  S E  E  E  E     Q    E.  S E  E  E  E
-------------------------|-------------------------|
-------------------------|-------------------------|
-------------------------|-------4-----------------|
----------------6--------|----------------7--------|
-------7-----------------|-----------0-5-----7--8--|
--0--------0-4-----5--6--|--7----------------------|


  Q    S S S S S S S S S S E     Q    E.  S E  E  S S S S
-------x-x-x-x-x-x-x-x-x-x-x--|---------------------------|
-------x-x-x-x-x-x-x-x-x-x-x--|---------------------------|
-------x-x-x-x-x-x-x-x-x-x-x--|-------------2-------------|
-------x-x-x-x-x-x-x-x-x-x-x--|-------4--------4----------|
--9----x-x-x-x-x-x-x-x-x-x-x--|-------------------4-3-2-L-|
-------x-x-x-x-x-x-x-x-x-x-x--|--2--------2---------------|


Verse 2: (Overdrive Guitar)

//just the same as in Verse 1

Chorus: (Overdrive Guitar)

//just the same as in Chorus

Solo: (Overdrive Guitar)

               |---3--|                              |---3---|            
      H        S   S  S  E  E   E     S   Q    S E   S   S   S E   E  E
E||--------------------------------|-------------------------------------|
B||--------------------------------|-------------------------------------|
G||--11--------9h-11p-9-----9------|-------------------------------------|
D||---------------------11-----11--|--9h-11----L-L--10h-11p-10-9------9--|
A||--------------------------------|------------------------------12-----|
E||--------------------------------|-------------------------------------|


                     |-3-|                   |--3--|             
  H          E  S  S S S S E     S E  S Q    S  S  S S S S S E
------------------------------|------------------------------x--|
------------------------------|------------------------------x--|
------------------------------|------------------------------x--|
--9br--------L-------7-9-7----|--------------7h-9p-7---x---x----|
----------------7h-9-------7--|--7-9--L-9------------9-x---x----|
------------------------------|------------------------x---x----|


  E   S E   S E   S E  S E  S  S    H          E  E  E  S S
---------------------------------|--------------------------|
---------------------------------|--------------------------|
---------------------------------|--------------------------|
---------------------------------|--------------------------|
--9S--7-7S--5-5S--4-4--L-2--0h-2-|--2br--------L--2--0--2-0-|
---------------------------------|--------------------------|


  H          E  E  E  S  S     H        E  S   S S   S E
----------------------------|-----------------------------|
----------------------------|-----------------------------|
----------------------------|--------------------9h-11-9--|
----------------------------|--------------9h-11----------|
--2br--------L--2--0--------|-----------------------------|
----------------------2p-0h-|--2--------L-----------------|


                          |--3-|                                         
   Q      Q      E    E   S  S S  E      Q      Q.     S   S  S   S  E
---9------9------9-------------------|----------------------------------|
--12b----12b----12b--12--10-12-9-10--|--12b----12------------10h-12-10--|
-------------------------------------|-----------------9h-11------------|
-------------------------------------|----------------------------------|
-------------------------------------|----------------------------------|
-------------------------------------|----------------------------------|


  H          H
--9b~--------9br~--------|
-------------------------|
-------------------------|
-------------------------|
-------------------------|
-------------------------|


  |--3--|  |--3--|  |--3--|  |--3--| |--3--| |--3--| |--3--| |-3-|
  S  S  S  S  S  S  S  S  S  S  S  S S  S  S S  S  S S  S  S S S S
--7h-9p-7S-5h-7p-5S-4h-5p-4S-2h-4p-2-0h-2p-0-----------------------|
---------------------------------------------4h-5p-4-2h-4p-2---2---|
-------------------------------------------------------------4---4-|
-------------------------------------------------------------------|
-------------------------------------------------------------------|
-------------------------------------------------------------------|


  H        E  E  E  S S    H        E  E  E  S S    H          E  E  E  E
------------------------|------------------------|-------------------------|
------------------------|------------------------|-------------------------|
--4br------L--4--2--4-2-|--4br------L--4--2--4-2-|--4br--------L--4--2--1--|
------------------------|------------------------|-------------------------|
------------------------|------------------------|-------------------------|
------------------------|------------------------|-------------------------|


  W                   Q    Q    Q    Q
-------------------|----------------------||
-------------------|----------------------||
-------------------|----------------------||
--4----------------|--L-------------------||
-------------------|----------------------||
-------------------|----------------------||

Bass

Intro/Verse 

G|---------2--------------2-2-----6-----------9---------------------------------------| 
D|----4-4----4-------------------------------------------9p7--------------9-7---------| 
A|---------------4-3-2-0------4------5-6-7-------------7------9-7--9-9-9------9p7h9---| 
E|-2-------------------------------------------------0--------------------------------| 3 TIMES 

Pre-Chorus 

G|----------2---------------2-2-----6----------9----------------------------------------| 
D|----4-4-----4------------------------------------------9p7-------------9-7------------| 
A|-----------------4-3-2-0------4-----5-6-7----------7-------9-7-9-9-9--------9p7-------| 
E|-2---------------------------------------------0--------------------------------7-----| 1 TIME 

Chorus 

G|--------------6-----------9-9-----------------------7---------11-11-----------------| 
D|----7-7--------------------------6---------9-9------------------------9-7-----------| 
A|-----------4-----5-6-7---------------------------5-----7-8-9---------------9p7------| 
E|-5----------------------------4----5-6-7------------------------------------------7-| 2 TIMES 

Intro/Verse 

G|---------2--------------2-2-----6-----------9--------------------------------------| 
D|----4-4----4------------------------------------------9p7------------9-7-----------| 
A|---------------4-3-2-0------4------5-6-7-----------7------9-7-9-9-9-------9p7h9----| 
E|-2------------------------------------------------0--------------------------------| 1 TIME

Pre-Chorus 

G|----------2--------------2-2-----6----------9-------------------------------------| 
D|----4-4-----4---------------------------------------9p7------------9-7------------| 
A|-----------------4-3-2-0------4-----5-6-7--------7-------9-7-9-9-9------9p7-------| 
E|-2--------------------------------------------0-----------------------------7-----| 1 TIME

Chorus 

G|--------------6-----------9-9-----------------------7---------11-11------------------| 
D|----7-7--------------------------6---------9-9------------------------9-7------------| 
A|-----------4-----5-6-7---------------------------5-----7-8-9---------------9p7-------| 
E|-5-----------------------------4----5-6-7------------------------------------------7-| 2 TIMES

Intro/Verse 

G|---------2--------------2-2-----6-----------9------------------------------------| 
D|----4-4----4------------------------------------------9p7------------9-7---------| 
A|---------------4-3-2-0------4------5-6-7------------7-----9-7-9-9-9------9p7h9---| 
E|-2----------------------------------------------0--------------------------------| 1 TIME

Pre-Chorus 

G|----------2---------------2-2-----6----------9------------------------------------| 
D|----4-4-----4--------------------------------------9p7-------------9-7------------| 
A|-----------------4-3-2-0------4-----5-6-7-------7------9-7-9-9-9-------9p7--------| 
E|-2--------------------------------------------0-----------------------------7-----| 1 TIME

Chorus 

G|--------------6-----------9-9-----------------------7---------11-11------------------| 
D|-----7-7-------------------------6---------9-9------------------------9-7------------| 
A|-----------4-----5-6-7---------------------------5-----7-8-9---------------9p7-------| 
E|-5-----------------------------4----5-6-7------------------------------------------7-| 2 TIMES

And just let the F# ring at the end.

Note: I'm not sure if the amount of times being played is correct for the whole song. If it isn't, just edit or something. =)

Back to Tablature