Talk:Hysteria (tablature)

MuseWiki, wiki for the band Muse
Jump to: navigation, search

Proposed modification to the solo

This section of the first part of the solo is not quite right:

e--------12-12-------17-17-------13-13-------12-12-|
B--------------------------------------------------|
G--14-14-------14-14-------14-14-------14-14-------|
D--------------------------------------------------|
A--------------------------------------------------|
E--------------------------------------------------|

It should be:

e--------13-13-------17-17-------13-13-------12-12-|
B--------------------------------------------------|
G--14-14-------14-14-------14-14-------14-14-------|
D--------------------------------------------------|
A--------------------------------------------------|
E--------------------------------------------------|

--Adewalker (talk) 21:45, 25 November 2014 (GMT)

Added string tuning info to avoid any confusion

--Adewalker (talk) 07:18, 5 December 2014 (GMT)