Rain (tablature)

MuseWiki, wiki for the band Muse
Jump to: navigation, search
..E7.......................D7add2...................
E|------0-----------------|------0-----------0-----|
B|--------0-------------0-|----2----2------2----2--|
G|----------7-------------|-------4-----------4----|
D|----6-----------6-------|--5-----------5---------|
A|--7-----------7-----6---|0-----------0-----------|
E|0-----------0-----6-----|------------------------|

..Em7.........E7...........D7add2...................
E|------0-----------0-----|------0-----------0-----|
B|--------------------0---|----2----2------2----2--|
G|--------7-------------7-|-------4-----------4----|
D|----6-----5-----6-------|--5-----------5---------|
A|--7-----------7---------|0-----------0-----------|
E|0-----------0-----------|------------------------|

Play 5 times. On 3rd time, replace 4th bar with:
E|0-|
B|2-| (Staccato)
G|4-|
D|5-|
A|0-|
E|--|
On 5th time, play same chord but strum the chord and let ring

Also...
Guitar 2:
(2nd time)
E|------12----------------|------------------------|
B|----12------------------|10b11----b10----8-------|
G|--12--------------------|------------------9-7-9-|(let ring)
D|14----------------------|------------------------|
A|------------------------|------------------------|
E|------------------------|------------------------|

Chorus
..D...........F#...........A........................cont. sim
E|------------------------|------------------------|
B|------------------------|------------------------|
G|7-7-7-7-----------------|------------------------|
D|7-7-7-7-----4-4-4-4-----|7---7-7-7-7-7-7-7-7-7-7-|
A|5-5-5-5-----4-4-4-4-----|7---7-7-7-7-7-7-7-7-7-7-|
E|--------0-1-2-2-2-2-3-4-|5---5-5-5-5-5-5-5-5-5-5-|

E|------------------------|------------------------|
B|------------------------|------------------------|
G|7-7-7-7-7-7-3-3-3-3-----|------------------------|
D|7-7-7-7-7-7-4-4-4-4-----|7---7-7-7-7-7-7-7-7-7-7-|
A|5-5-5-5-5-5-4-4-4-4-----|7---7-7-7-7-7-7-7-7-7-7-|
E|------------2-2-2-2-3-4-|5---5-5-5-5-5-5-5-5-5-5-|

E|------------------------|------------------------|
B|------------------------|------------------------|
G|7-7-7-7-----------------|------------------------|
D|7-7-7-7-----4-4-4-4-----|7---7-7-7-7-7-7-7-7-7-7-|
A|5-5-5-5-----4-4-4-4-----|7---7-7-7-7-7-7-7-7-7-7-|
E|--------0-1-2-2-2-2-3-4-|5---5-5-5-5-5-5-5-5-5-5-|

E|------------------------|------------------------|--|
B|------------------------|------------------------|--|
G|7-7-7-7-7-7-3-3-3-3-----|------------------------|--|
D|7-7-7-7-7-7-4-4-4-4-----|7-----------------------|--|(let ring for
A|5-5-5-5-5-5-4-4-4-4-----|7-----------------------|--| 4 bars)
E|------------2-2-2-2-3-4-|5-----------------------|0-|

Solo
E|--------------1512------|------------------------------|
B|14----------------1512--|-----15-------------12--12----|
G|----------------------14|14b15--14b15b14-12--12--12----|
D|------------------------|------------------14--14--1412|
A|------------------------|------------------------------|
E|------------------------|------------------------------|

E|------------------------|----15------------12---------|
B|------------------------|------------------12---------|
G|--------------------12--|15b16--b1512------12---------|
D|----------14----1214--14|------------141214------------|
A|1312--------------------|------------------------------|
E|----151212--------------|------------------------------|

Then repeat verse section, on last 2 repeats speeding up
and strumming chords more than before

Then repeat chorus with these additions:

E|------------------------|------------------------|
B|------------------------|------------------------|
G|7-7-7-7-----------------|------------------------|
D|7-7-7-7-----4-4-4-------|------7-7-7-7-7-7-7-7-7-|
A|5-5-5-5-----4-4-4-------(w/bar)7-7-7-7-7-7-7-7-7-|
E|--------0-1-2-2-2-3b5---|5454545-5-5-5-5-5-5-5-5-|

E|----------------------------------------------|
B|----------------------------------------------|
G|----------------------------------------------|
D|7-7-7-7-7-7-7--9--10--11111111111111--12--13--|
A|5-5-5-5-5-5-5--7--8---9-9-9-9-9-9-9---10--11--|
E|----------------------------------------------|

E|------------------------------|--------------------0000|
B|------------------------------|--------------------0000|
G|------------------------------|--------------------0000|
D|13b1413b1413b1413b1413b1413b14|13b1413b1413b1413b140000|
A|12---12---12---12---12---12---|12---12---12---12-------|
E|------------------------------|------------------------|

(Doubled Part )
E|-----------------(15b17-|16b1716b1716b1716b17)---------------|
B|------------------------|------------------------------------|
G|7777777-----------------|------------------------------------|
D|7777777-----444444------|7----7----7----7----7-7-7-7-7-7-7-7-|
A|5555555-----444444------|7----7----7----7----7-7-7-7-7-7-7-7-|
E|--------0-1-2222223b5---|5----5----5----5----5-5-5-5-5-5-5-5-|

Then repeat chorus section again, letting ring at end like before

Outro:
E|------2-----------0-----|------0-----------0-----|
B|----3---3-------0-----3-|----2-----2-----------2-|
G|--0-------0---0-----0---|--------4-------4---4---|
D|------------------------|--5-----------5---------|
A|------------------------|0-----------------------|
E|0-----------------------|------------------------|

E|------2-----------0-----|------0-----------0-----|
B|----3---3-------0-----3-|----2-----2---------3---|
G|--0-------0---0-----0---|--------4-------4-------|
D|------------------------|--5-----------5-------5-|
A|------------------------|0-----------------------|
E|0-----------------------|------------------------|

..Emaj7...................
E|---------------------11-|
B|-----------------9------|
G|-----------9-------9----|
D|------9-------9---------|
A|---11---11--------------|
E|0-----------------------|