Popcorn (tablature)

MuseWiki, wiki for the band Muse
Jump to: navigation, search
e|--------------------------------------------|
B|--12-10-12-------------12-10-12-------------|
G|-----------11----11-------------11----11----|
D|--------------12----9--------------12----9--|
A|--------------------------------------------|
E|--------------------------------------------|

e|------------------------------------------------|
B|--12-14-15-14-15-12-14-12-14-10-12-10----10-12--|
G|--------------------------------------11--------|
D|------------------------------------------------|
A|------------------------------------------------|
E|------------------------------------------------|

e|--------------------------------------------------|
B|--12-10-12p10-------------12-10-12p10-------------|
G|--------------11----11----------------11----11----|
D|-----------------12----9-----------------12----9--|
A|--------------------------------------------------|
E|--------------------------------------------------|

e|------------------------------------------------|
B|--12-14-15-14-15-12-14-12-14-10-12-10----10-12--|
G|--------------------------------------11--------|
D|------------------------------------------------|
A|------------------------------------------------|
E|------------------------------------------------|

e|----------------------------------------------|
B|--19-17-19--------------19-17-19--------------|
G|-----------18----18--------------18----18-----|
D|--------------19----16--------------19----16--|
A|----------------------------------------------|
E|----------------------------------------------|

e|------------------------------------------------|
B|--19-21-22-21-22-19-21-19-21-17-19-17----17-19--|
G|--------------------------------------18--------|
D|------------------------------------------------|
A|------------------------------------------------|
E|------------------------------------------------|

e|----------------------------------------------------|
B|--19-17-19p17--------------19-17-19p17--------------|
G|--------------18----18-----------------18----18-----|
D|-----------------19----16-----------------19----16--|
A|----------------------------------------------------|
E|----------------------------------------------------|

e|------------------------------------------------|
B|--19-21-22-21-22-19-21-19-21-17-19-17----17-19--|
G|--------------------------------------18--------|
D|------------------------------------------------|
A|------------------------------------------------|
E|------------------------------------------------|

e|--------------------------------------------------|
B|--12-10-12p10-------------12-10-12p10-------------|
G|--------------11----11----------------11----11----|
D|-----------------12----9-----------------12----9--|
A|--------------------------------------------------|
E|--------------------------------------------------|

e|----------------------------------------------------|
B|--12.-15-14-15-14-12-14-12-14-12-10-12-10----10-12--|
G|------------------------------------------11--------|
D|----------------------------------------------------|
A|----------------------------------------------------|
E|----------------------------------------------------|

e|--------------------------------------------------|
B|--12-10-12p10-------------12-10-12p10-------------|
G|--------------11----11----------------11----11----|
D|-----------------12----9-----------------12----9--|
A|--------------------------------------------------|
E|--------------------------------------------------|

e|------------------------------------------------------|
B|--12-14-15-14-15-14-12-14-12-14-12-10-12-10----10-12--|
G|--------------------------------------------11--------|
D|------------------------------------------------------|
A|------------------------------------------------------|
E|------------------------------------------------------|

e|----------------------------------------------------|
B|--19-17-19p17--------------19-17-19p17--------------|
G|--------------18----18-----------------18----18-----|
D|-----------------19----16-----------------19----16--|
A|----------------------------------------------------|
E|----------------------------------------------------|

e|------------------------------------------------------|
B|--19-21-22-21-22-21-19-21-19-21-19-17-19-17----17-19--|
G|--------------------------------------------18--------|
D|------------------------------------------------------|
A|------------------------------------------------------|
E|------------------------------------------------------|

e|----------------------------------------------------|
B|--19-17-19p17--------------19-17-19p17--------------|
G|--------------18----18-----------------18----18-----|
D|-----------------19----16-----------------19----16--|
A|----------------------------------------------------|
E|----------------------------------------------------|

e|------------------------------------------------------|
B|--19-21-22-21-22-21-19-21-19-21-19-17-19-17----17-19--|
G|--------------------------------------------18--------|
D|------------------------------------------------------|
A|------------------------------------------------------|
E|------------------------------------------------------|

e|------------------------------------------------------------|
B|--15p14p12---15-17-19--17--15~~~~p14p12---15-17-19--17--15--|
G|------------------------------------------------------------|
D|------------------------------------------------------------|------
A|------------------------------------------------------------|     |
E|------------------------------------------------------------|     |
                                                                    |
e|--17--14--17-19-21--19--17----14-17-19-21--19--17--|   Tremolo pick and hold all notes.
B|---------------------------------------------------|              |
G|---------------------------------------------------|              |
D|---------------------------------------------------|---------------
A|---------------------------------------------------|
E|---------------------------------------------------|

e|--------------------------------------------------|
B|--12-10-12p10-------------12-10-12p10-------------|
G|--------------11----11----------------11----11----|
D|-----------------12----9-----------------12----9--|
A|--------------------------------------------------|
E|--------------------------------------------------|

e|----------------------------------------------------|
B|--12.-15-14-15-14-12-14-12-14-12-10-12-10----10-12--|
G|------------------------------------------11--------|
D|----------------------------------------------------|
A|----------------------------------------------------|
E|----------------------------------------------------|

e|--------------------------------------------------|
B|--12-10-12p10-------------12-10-12p10-------------|
G|--------------11----11----------------11----11----|
D|-----------------12----9-----------------12----9--|
A|--------------------------------------------------|
E|--------------------------------------------------|

e|----------------------------------------------------|
B|--12.-15-14-15-14-12-14-12-14-12-10-12-10----10-12--|
G|------------------------------------------11--------|
D|----------------------------------------------------|
A|----------------------------------------------------|
E|----------------------------------------------------|

e|----------------------------------------------------|
B|--19-17-19p17--------------19-17-19p17--------------|
G|--------------18----18-----------------18----18-----|
D|-----------------19----16-----------------19----16--|
A|----------------------------------------------------|
E|----------------------------------------------------|

e|------------------------------------------------------|
B|--19-21-22-21-22-21-19-21-19-21-19-17-19-17----17-19--|
G|--------------------------------------------18--------|
D|------------------------------------------------------|
A|------------------------------------------------------|
E|------------------------------------------------------|

e|----------------------------------------------------|
B|--19-17-19p17--------------19-17-19p17--------------|
G|--------------18----18-----------------18----18-----|
D|-----------------19----16-----------------19----16--|
A|----------------------------------------------------|
E|----------------------------------------------------|

e|------------------------------------------------------|
B|--19-21-22-21-22-21-19-21-19-21-19-17-19-17----17-19--|
G|--------------------------------------------18--------|
D|------------------------------------------------------|
A|------------------------------------------------------|
E|------------------------------------------------------|

e|------------------------------------------------------------|
B|--15p14p12---15-17-19--17--15~~~~p14p12---15-17-19--17--15--|
G|------------------------------------------------------------|
D|------------------------------------------------------------|------
A|------------------------------------------------------------|     |
E|------------------------------------------------------------|     |
                                                                    |
e|--17--14--17-19-21--19--17----14-17-19-21--19--17--|   Tremolo pick and hold all notes.
B|---------------------------------------------------|              |
G|---------------------------------------------------|              |
D|---------------------------------------------------|---------------
A|---------------------------------------------------|
E|---------------------------------------------------|

e|------------------------------------------------------|
B|------------------------------------------------------|
G|--16----16----16----16----16----16----16----16--------|
D|-----16----16----16----16----16----16----16----16--9\/|
A|---------------------------------------------------9\/|  
E|---------------------------------------------------7\/|