Nishe (tablature)

MuseWiki, wiki for the band Muse
Jump to: navigation, search
Muse Niche:


Bass Tab (Continuous):
G---------------7-------------------------------------------------------|
D---9-------------------------9-----------------------------------------|
B------7—9----------------------7—9-------------------------------------|
E------------------------------------------7----------------------------|

Guitar Tab (With no tone and some reverb):

E--------------------7---------------|
B-----------------7------------------|
G--------------7---------------------|
D---9--------------------------------|              (Phrase One)
A------------------------------------|
E---7--------------------------------|


E---9--------9---7--------------------------------------------------|
B---7--------7------10—9---------9-----9-----9---      (Phrase Two--|
G---7--------7------------------7-------7---7-----------------------|
D---0---------------------------------------------------------------|   (Chord first
A-------------------------------------------------------------------|  time only)
E-------------------------------------------------------------------|


E---9---7--------------9----|
B---7------10—9—7------7----|   (Phrase Three)
G---7-----------------------|
D---------------------------|
A---------------------------|
E---------------------------|


E--------------------------------------------------------|
B---5^ (5)—3—2-----------------5^(5)—3—2^--0-------------| (Phrase Four)
G--------------------------------------------------------|
D-------------------(4-3-2-0-----------------------------|Play Brackets 2nd
A------------------------------4-2^-2)-------------------|time only
E--------------------------------------------------------|


E---10--9—7---------------------------------------10—9—7-----------9-|
B----7-----------10—9^------9---9---9---9---------7----------10—9^-7-|
G----7--------------------7---7---7---7-----------7------------------| Phrase
D--------------------------------------------------------------------|  Five
A--------------------------------------------------------------------|
E--------------------------------------------------------------------|


E--------------------------------------------------------------|
B---3---5---7---7^------7^---5---3---2^---(0)------------------|
G--------------------------------------------------------------| Phrase 6
D--------------------------------------------------------------| (0) 1st
A--------------------------------------------------------------|  time only
E--------------------------------------------------------------|


^ means either bend ½ or vibrato

Time:
Phrase One X 1
Phrase Two X 2
Phrase Three  X 1
Phrase Four X 2
Phrase Two X 1
Phrase Three X 1
Phrase Five X 1
Phrase Six X 2
Phrase Two X 1
Phrase Three X 1
Phrase Five X 1
Phrase Four X 1


Go back to tablature