Neutron Star Collision (Love Is Forever) (tablature)

MuseWiki, wiki for the band Muse
Jump to: navigation, search
Neutron Star Collision (Love is Forever)


1st chorus (2nd half)

e|----------------------------|
B|----------------------------|
G|----------------------------|
D|----------------------------|
A|----------------------------|
E|-2---2-4-5----9---8-6-5~----|

e|--------------------------|
B|--------------------------|
G|--------------------------|
D|--------------------------|
A|-9---9-11-12----16~-------|
E|--------------------------|


Verse

e|--------------------------------------------------------------------------|
B|--------------------------------------------------------------------------|
G|--------------------------------------------------------------------------| x2
D|--------------------------------------------------------------------------|
A|-4-444-444-444---8-888-888-888---9-999-999-999---11-111111-111111-111111--|
E|--------------------------------------------------------------------------|
  
it'is three 11 not six 1

e|------------------------------------------------------------------------------------------------------------------------------------------|
B|------------------------------------------------------------------------------------------------------------------------------------------|
G|------------------------------------------------------------------------------------------------------------------------------------------|
D|------------------------------------------------------------------------------------------------------------------------------------------|
A|---------------------------------------------------------------------------------8-888-888-888---9-999-999-999---11-111111-111111-111111--| 
E|-4-444-444-444---5-555-555-555---6-666-666-666---8-888-888-888---9-999-999-999------------------------------------------------------------|
   
it is three 11 not six 1

2nd Chorus

e|---------------------------------------------------------------------|
B|---------------------------------------------------------------------|
G|-------------------------------6-6-6-6-6-6—8-10-10-10-10-10-10-10-10-|
D|-4-4-4-4-4-4-4-6-7-7-7-7-7-7-7-6-6-6-6-6-6—8-10-10-10-10-10-10-10-10—| x3  
A|-4-4-4-4-4-4-4-6-7-7-7-7-7-7-7-4-4-4-4-4-4—6--8--8--8--8--8--8--8--8-|
E|-2-2-2-2-2-2-2-4-5-5-5-5-5-5-5---------------------------------------|

e|-----------------------------------------|
B|-----------------------------------------|
G|-------------------------------6--6-6----|
D|-4-4-4-4-4-4-4-6-7-7-7-7-7-7-7-6--6-6----|
A|-4-4-4-4-4-4-4-6-7-7-7-7-7-7-7-4--4-4----|
E|-2-2-2-2-2-2-2-4-5-5-5-5-5-5-5-----------|


Solo (with whammy bar or fast vibrato)

e|---------------------------------------------------|
B|-14-14-14-14-13-13---------------------------------|
G|--------------------17/13-13-15-13-----------------|
D|------------------------------------16-15/18-18-16-|
A|---------------------------------------------------|
E|---------------------------------------------------|

e|---------------------------------------------------|
B|------------16-18-18bubd-16-14-13-14-16-18bu-------|
G|--------18-----------------------------------------|
D|-15-18----------------------------------------18\\-|
A|---------------------------------------------------|
E|---------------------------------------------------|


Go back to tablature