Minimum (tablature)

MuseWiki, wiki for the band Muse
Jump to: navigation, search
Muse - Minimum
Tabbed by: Muse-Kapok (Part One/Two by Shadknight99)

For a live performance of this song: [http://www.youtube.com/watch?v=mSVKJav53xQ]

/= slide up
\= slide down
b= bend
r= release


Part One (clean guitar)(more distorted as time passes)
e||-----10---10----------12---12---------12---12---------14---14----
b||----0----0----------0-----0----------0----0----------0----0------
g||--11---11---11-11/12----12---12-12/13---13---13-13/14---14---14--

e||-----12---12------12---12------|
b||----0----0-------0----0--------|
g||--13---13---13-12---12---12----| x3


Part Two (distorted guitar)

a||--2-----------0--1--|
E||-----0--1--2--------|x8

For the 4th time around on part 2, Matt plays this chord in place of the first note:
b||--3
g||--2
d||--1
a||--2


Part One
Part Two


Solo (distorted guitar with effects)

b||-----------------------------------------------------------------------3--5b6r5-5-3---|
g||----------------------------------------------------------2-2-3-3-4-4---------------4-|
d||-------------------------------------------------0--2--4------------------------------|
a||--2-------------0-0-1-1-2-------------0-0-1-1-2---------------------------------------|
E||-----0--1--2--2------------0--1--2--2-------------------------------------------------|


Part Two x2 (just with more of the chord shown higher on the page)


Hope this tab was helpful; feel free to put in any minor editing where needed.

Chris


Go back to tablature