MK ULTRA (tablature)

MuseWiki, wiki for the band Muse
Jump to: navigation, search

Main Intro riff Corrected by Spiderliam, Corrected by DSpek, Pre-chorus corrected by Jack96, All Corrected again by Adam, Pre-chorus, Chorus 1 & 2 and Outro corrected again + Whammy advice by GiveMeThePiss

Tuning : Drop D

Use a Whammy pedal (Harmony -1oct. effect) to get the correct sound of the riff.

Intro :
E|-13----12-13----12-13----|----13-------13-------13-|-------13-------13-------|-15-------15-------15----|
B|----10-------10-------10-|-11----10-11----10-11----|-10-13----10-13----10-13-|----12-13----12-13----12-|
G|-------------------------|-------------------------|-------------------------|-------------------------|
D|-------------------------|-------------------------|-------------------------|-------------------------|
A|-------------------------|-------------------------|-------------------------|-------------------------|
D|-------------------------|-------------------------|-------------------------|-------------------------|

E|-------17-------17-------|-18-------18-------18----|----13-17----13-17----13-|-15-13-12----13-12-------|
B|-13/15----13-15----13-15-|----15-18----15-18----15-|-13-------13-------13----|----------14-------14-11-|
G|-------------------------|-------------------------|-------------------------|-------------------------|
D|-------------------------|-------------------------|-------------------------|-------------------------|
A|-------------------------|-------------------------|-------------------------|-------------------------|
D|-------------------------|-------------------------|-------------------------|-------------------------|

Verse 1 :
E||-------------------------||----------------------------|----------------------------|-----------------|
B||-10-10-10-10-10-10-10-10-||-10b11-11-11-11-11-11-11-11-|-11b10-10-10-10-10-10-10-10-|-8-8-8-8-8-8-8-8-|
G||------------------------(x5)---------------------------|----------------------------|-----------------| (x2)
D||-------------------------||----------------------------|----------------------------|-----------------|
A||-------------------------||----------------------------|----------------------------|-----------------|
D||-------------------------||----------------------------|----------------------------|-----------------|

Riff :
E|-13----12-13----12-13----|----13-------13-------13-|-------13-------13-------|-15-------15-------15----|
B|----10-------10-------10-|-11----10-11----10-11----|-10-13----10-13----10-13-|----12-13----12-13----12-|
G|-------------------------|-------------------------|-------------------------|-------------------------|
D|-------------------------|-------------------------|-------------------------|-------------------------|
A|-------------------------|-------------------------|-------------------------|-------------------------|
D|-------------------------|-------------------------|-------------------------|-------------------------|

E|-------17-------17-------|-18-------18-------18----|----13-17----13-17----13-|-15-13-12----13-12-------|
B|-13/15----13-15----13-15-|----15-18----15-18----15-|-13-------13-------13----|----------14-------14-11-|
G|-------------------------|-------------------------|-------------------------|-------------------------|
D|-------------------------|-------------------------|-------------------------|-------------------------|
A|-------------------------|-------------------------|-------------------------|-------------------------|
D|-------------------------|-------------------------|-------------------------|-------------------------|

Pre-Chorus :
E|-----------------------------------------------------------------------------------------------------------------------------|
B|-3-3-3-3-3-3-x-x-3-3-3-3-3-3-x-x-5-5-5-5-5-5-x-x-5-5-5-5-5-5-x-x-5-5-5-5-5-5-x-x-5-5-5-5-5-5-x-x-6-6-6-6-6-6-x-x-6-6-6-6-6-6-|
G|-3-3-3-3-3-3-x-x-3-3-3-3-3-3-x-x-5-5-5-5-5-5-x-x-5-5-5-5-5-5-x-x-6-6-6-6-6-6-x-x-6-6-6-6-6-6-x-x-7-7-7-7-7-7-x-x-7-7-7-7-7-7-|
D|-3-3-3-3-3-3-x-x-3-3-3-3-3-3-x-x-5-5-5-5-5-5-x-x-5-5-5-5-5-5-x-x-7-7-7-7-7-7-x-x-7-7-7-7-7-7-x-x-7-7-7-7-7-7-x-x-7-7-7-7-7-7-|
A|-1-1-1-1-1-1-x-x-1-1-1-1-1-1-x-x-3-3-3-3-3-3-x-x-3-3-3-3-3-3-x-x-4-4-4-4-4-4-x-x-4-4-4-4-4-4-x-x-5-5-5-5-5-5-x-x-5-5-5-5-5-5-|
D|-----------------------------------------------------------------------------------------------------------------------------|

E|-------------------------------------------------------------------|
G|-8--8-----------8----------8-----------------10---------10------10-|
B|-9--9------9----------9------9----------9----------9-------9-------|
D|-10-10--10---10----10---10-----10-10\11---11----11---11------11----|
A|-------------------------------------------------------------------|
D|-------------------------------------------------------------------|

Chorus 1 :
E|------------------------------------------------------------------|
B|------------------------------------------------------------------|
G|------------------------------------------------------------------|
D|------------------------------------------------------------------|
A|------------------------------------------------------------------|
D|-12-12--12--12\----12-12--12--11\----10-10--10--10\----9-9--9--9\-|

E|--------------------------------------------------------------------------|
B|--------------------------------------------------------------------------|
G|--------------------------------------------------------------------------|
D|--------------------------------------------------------------------------|
A|--------------------------------------------------------------------------|
D|-8-8--8--8\----7-7--7--7\----7-7--7--7\----7-7--7----7\-------------------| x2

Second riff :
E|-----------------|
B|-----------------|
G|-----------------|
D|-----------------|
A|---------------5-|
D|-0-0-3-0-5-7-0---| x4

Verse 2 :
E||-------------------------||----------------------------|----------------------------|-----------------|
B||-10-10-10-10-10-10-10-10-||-10b11-11-11-11-11-11-11-11-|-11b10-10-10-10-10-10-10-10-|-8-8-8-8-8-8-8-8-|
G||------------------------(x5)---------------------------|----------------------------|-----------------|
D||-------------------------||----------------------------|----------------------------|-----------------|
A||-------------------------||----------------------------|----------------------------|-----------------|
D||-------------------------||----------------------------|----------------------------|-----------------|

E||-----------------------------|----------------------------|----------------------------|-----------------------------|
B||-10p8h10p8h10-10-10-10-10-10-|-10-10-10-10-10-10-10-10-10-|-10-10-10-10-10-10-10-10-10-|-10p8h10p8h10-10-10-10-10-10-|
G||-----------------------------|----------------------------|----------------------------|-----------------------------|
D||-----------------------------|----------------------------|----------------------------|-----------------------------|
A||-----------------------------|----------------------------|----------------------------|-----------------------------|
D||-----------------------------|----------------------------|----------------------------|-----------------------------|

E||-------------------------|----------------------------|----------------------------|-----------------|
B||-10-10-10-10-10-10-10-10-|-10b11-11-11-11-11-11-11-11-|-11b10-10-10-10-10-10-10-10-|-8-8-8-8-8-8-8-8-|
G||-------------------------|----------------------------|----------------------------|-----------------|
D||-------------------------|----------------------------|----------------------------|-----------------|
A||-------------------------|----------------------------|----------------------------|-----------------|
D||-------------------------|----------------------------|----------------------------|-----------------|

Pre-Chorus

E|-13----12-13----12-13----|----13-------13-------13-|-------13-------13-------|-15-------15-------15----|
B|----10-------10-------10-|-11----10-11----10-11----|-10-13----10-13----10-13-|----12-13----12-13----12-|
G|-------------------------|-------------------------|-------------------------|-------------------------|
D|-------------------------|-------------------------|-------------------------|-------------------------|
A|-------------------------|-------------------------|-------------------------|-------------------------|
D|-------------------------|-------------------------|-------------------------|-------------------------|

E|-------17-------17-------|-18-------18-------18----|----13-17----13-17----13-|-15-13-12----13-12-------|
B|-13/15----13-15----13-15-|----15-18----15-18----15-|-13-------13-------13----|----------14-------14-11-|
G|-------------------------|-------------------------|-------------------------|-------------------------|
D|-------------------------|-------------------------|-------------------------|-------------------------|
A|-------------------------|-------------------------|-------------------------|-------------------------|
D|-------------------------|-------------------------|-------------------------|-------------------------|

Pre-Chorus :
E|-----------------------------------------------------------------------------------------------------------------------------|
B|-3-3-3-3-3-3-x-x-3-3-3-3-3-3-x-x-5-5-5-5-5-5-x-x-5-5-5-5-5-5-x-x-5-5-5-5-5-5-x-x-5-5-5-5-5-5-x-x-6-6-6-6-6-6-x-x-6-6-6-6-6-6-|
G|-3-3-3-3-3-3-x-x-3-3-3-3-3-3-x-x-5-5-5-5-5-5-x-x-5-5-5-5-5-5-x-x-6-6-6-6-6-6-x-x-6-6-6-6-6-6-x-x-7-7-7-7-7-7-x-x-7-7-7-7-7-7-|
D|-3-3-3-3-3-3-x-x-3-3-3-3-3-3-x-x-5-5-5-5-5-5-x-x-5-5-5-5-5-5-x-x-7-7-7-7-7-7-x-x-7-7-7-7-7-7-x-x-7-7-7-7-7-7-x-x-7-7-7-7-7-7-|
A|-1-1-1-1-1-1-x-x-1-1-1-1-1-1-x-x-3-3-3-3-3-3-x-x-3-3-3-3-3-3-x-x-4-4-4-4-4-4-x-x-4-4-4-4-4-4-x-x-5-5-5-5-5-5-x-x-5-5-5-5-5-5-|
D|-----------------------------------------------------------------------------------------------------------------------------|

E|-------------------------------------------------------------------|
G|-8--8-----------8----------8-----------------10---------10------10-|
B|-9--9------9----------9------9----------9----------9-------9-------|
D|-10-10--10---10----10---10-----10-10\11---11----11---11------11----|
A|-------------------------------------------------------------------|
D|-------------------------------------------------------------------|

Chorus 2 :
E|-----------------------------------------------------------------------------------------|
G|-10-10-10-10-10-10-10-10-11-11-11-11-10-10-x--9--9--9--9--9--9--9--x-10-10-10-10-10-10-x-|
B|-10-10-10-10-10-10-10-10-10-10-10-10-10-10-x--9--9--9--9--9--9--9--x-9--9--9--9--9--9--x-|
D|-12-12-12-12-12-12-12-12-12-12-12-12-12-12-x--12-12-12-12-12-12-12-x-11-11-11-11-11-11-x-|
A|-----------------------------------------------------------------------------------------|
D|-----------------------------------------------------------------------------------------|

E|---------------------------------------------------------------------------------|
G|-10-10-10-10-10-10-10-10-11-11-11-11-10-10-x--10-10-10-10-10-10-10-8-8-8-8-8-8-x-|
B|-8--8--8--8--8--8--8--8--8--8--8--8--8--8--x--7--7--7--7--7--7--7--7-7-7-7-7-7-x-|
D|-10-10-10-10-10-10-10-10-10-10-10-10-10-10-x--9--9--9--9--9--9--9--9-9-9-9-9-9-x-|
A|---------------------------------------------------------------------------------|
D|---------------------------------------------------------------------------------|
  (-------8 times--------)(-4 times--)(-twice-)(-------8 times--------)
(You can just make 0's for the dead notes, I wrote x's just to make the separation clearer)

E|---------------------------------------3-------2-------1-------0-----x-1-------1-------1-------1-----x-0-------0-------\-|
G|-8-8-8-8-8-8-8-8-10-10-10-10-8-8-8-x-x---3---3---3---3---3---3---3---x---3---3---3---3---3---3---3---x---2---2---2---2-\-|
B|-7-7-7-7-7-7-7-7-7--7--7--7--7-7-7-x-x-----2-------2-------2-------2-x-----2-------2-------2-------2-x-----2-------2---\-|
D|-8-8-8-8-8-8-8-8-8--8--8--8--8-8-8-0-x---------------------------------------------------------------0-------------------|
A|-------------------------------------------------------------------------------------------------------------------------|
D|-------------------------------------------------------------------------------------------------------------------------|

Outro :
E|-----------------------------------------------------------------------|
B|-----------------------------------------------------------------------|
G|-----------------------------------------------------------------------|
D|-----------------------------------------------------------------------|
A|--------------------5---------------5---------------5--------------5---|
D|-21\--0-0-3-0-5-7-0---0-0-3-0-5-7-0---0-0-3-0-5-7-0--0-0-3-0-5-7-0-----|

E|---------------------------------------------------------------------|
B|---------------------------------------------------------------------|
G|---------------------------------------------------------------------|
D|---------------------------------------------------------------------|
A|---------------7\--------------8\--------------10\-------------12\---|
D|-0-0-3-0-5-7-0-----0-3-0-5-7-0-----0-3-0-5-7-0-----0-3-0-5-7-0-------|


E|-------------------------------------------------------------------|
B|-------------------------------------------------------------------|
G|-------------------------------------------------------------------|
D|-------------------------------------------------------------------|
A|-------------13\-------------14\-------------15\-------------17\---|
D|-0-3-0-5-7-0-----0-3-0-5-7-0-----0-3-0-5-7-0-----0-3-0-5-7-0-------|

E|-------------------------------------------------------------------|
B|-------------------------------------------------------------------|
G|-------------------------------------------------------------------|
D|-------------------------------------------------------------------|
A|-------------17\-------------17\-------------17\-------------17\---|
D|-0-3-0-5-7-0-----0-3-0-5-7-0-----0-3-0-5-7-0-----0-3-0-5-7-0-------|

Signs :
h : hammer
p : pulling
x : muted note
\ : slide


Go back to tablature