Knights of Cydonia (tablature)

MuseWiki, wiki for the band Muse
Jump to: navigation, search

Knights of Cydonia Chords & Tabs

Chords


INTRO:

Aaah, aaah, aaah...

Em F#m G A A B (repeat)

Em

Em Bm C G
B C Eb G
Cm G Ab Eb
G Ab Eb G
Cm

Cm  Eb G# Eb 
G G# B Eb
G#m Eb E B
Eb E B Eb
G#m

VERSE:

G#m            B
Come ride with me through the 
E             B
Veins of history
Eb                 E 
I'll show you how God
G                   B
Falls asleep on the job And
Em         B
How can we win when
C            G
Fools can be kings?
B                C
Don't waste your time or time
G    B
Will waste 
Em
you

Aaah, aaah, aaah...

Em F#m G A A B (repeat)

Em

CHORUS:

Em                        Bm
No one's going to take me alive The

A                            Em
Time has come to make things right

Em                           Bm
You and I must fight for our rights

A                          Em
You and I must fight to survive
(repeat)

OUTRO:
[note: these chords go well with the E Dorian scale if you want to improv your own solo]

Em, Bm, A, Em (repeat)


Em

Tabs


Man With The Harmonica Opening 85t

E|-----------------------|--------|--------|--------------|--------|--------|--------|--------|
B|-----------------------|--------|--------|--------------|--------|--------|--------|--------|
G|-----------------------|--------|--------|--------------|--------|--------|--------|--------|
D|-----------------------|-2------|--------|--------------|--------|--7-----|--9-----|--------|
A|--0--------------------|--------|-2------|--2-3-2-0-2-0-|--0-----|--------|----7---|--7-----|
E|-----------------------|--------|--------|--------------|--------|--------|--------|--------|

E|---------|--------|--------|----------|--------|--------|--------|--------|--------|--------|
B|---------|--------|--------|----------|--------|--------|--------|--------|--------|--------|
G|---------|--------|--------|----------|--------|--------|--------|--------|--------|--------|
D|---------|-7----7-|--------|----------|--------|-7----7-|--------|--------|--------|--------|
A|--8-10---|--------|-5------|-5-7-5-3-5|-3------|--------|-2------|--------|--------|--------|
E|---------|--------|--------|----------|--------|--------|--------|--------|--------|--------| 

Intro:
                            tremelo picking
|--------------------------|-----------------------------------------------------------------
|--------------------------|-----------------------------------------------------------------
|-----------------------X2-|----------------------------------------------------------X2-----
|--------------------------|-----------------------------------------------------------------
|--------------0--0--2~~---|--7---5--7--9---7--9--10-----9-10-12--10--9--10--9--7-6----------
|--0--2--3~~---------------|-----------------------------------------------------------------

|-------------0~-----------------------------------------------------------------------------
|-------------0~-----------------------------------------------------------------------------
|-------------0~-----------------------------------------------------------------------------
|-------------2~-----------------------------------------------------------------------------
|-------------2~-----------------------------------------------------------------------------
|--7/19\0~~---0~-----------------------------------------------------------------------------

Solo (whammy bar throughout):
|--------------------------------------------------------------------------------------------
|--------------------------------------------------------------------------------------------
|--------------------------------------------------------------------------------------------
|-----------------------------------------------------5---7---8----7---8---9-----------------
|--10---9--7--5---7--9--10---9--7--5----6---7--9--7------------------------------------------
|--------------------------------------------------------------------------------------------

|--------------------------------------------------------------------------------------------
|--------------------------------------------------------------------------------------------
|--------------------------------------------------------------------------------------------
|--13---10------12---13--12--10--8----12---10--8--10---8--6--8---9---10----------------------
|-----------10-------------------------------------------------------------------------------
|--------------------------------------------------------------------------------------------

|----------------------------------------------------------------11--13--14---13--14--15-----
|--16---15--13--11--13--15--16---15--13--11----12--13--15---13-------------------------------
|--------------------------------------------------------------------------------------------
|--------------------------------------------------------------------------------------------
|--------------------------------------------------------------------------------------------
|--------------------------------------------------------------------------------------------


|--19---16------18---19--18--16--14----18---16--14--16---14--12--14----15----16~~------------
|-----------16-------------------------------------------------------------------------------
|--------------------------------------------------------------------------------------------
|--------------------------------------------------------------------------------------------
|--------------------------------------------------------------------------------------------
|--------------------------------------------------------------------------------------------

|--------------------------------------------------------------------------------------------
|--------------------------------------------------------------------------------------------
|--------------------------------------------------------------------------------------------
|--9--9--9--9--11-11-11-9--8--8--8--8--------------------------------------------------------
|--------------------------------------------------------------------------------------------
|--------------------------------------------------------------------------------------------
(Matt does not do the bend in live performances)

Verse (How can we win....):
|----------------------8---7~---7---8---7---7---7~-------------------------------------------
|--8-------7---------8-----8~---7---8---8---7---8~-------------------------------------------
|----9-------8-----9-------7~---8---9---7---8---9~-------------------------------------------
|------9-------9----------------9---10--9---9---9~-------------------------------------------
|--------------------------------------------------------------------------------------------
|--------------------------------------------------------------------------------------------
(In live performances, just pick the last three notes of each chord)

[Repeat intro]

|--------------------------------------------------------------------------------------------
|-----------10--8---12--12--14--17-----------------------------------------------------------
|--9---11------------------------------------------------------------------------------------
|-----------7---5---9---9---11--14-----------------------------------------------------------
|--7---9-------------------------------------------------------------------------------------
|--------------------------------------------------------------------------------------------

Last Chorus [x4]:
|-----------------------------------------------------------------------------------------------
|-----------------------------------------------------------------------------------------------
|-----------------------------------------------------------------------------------------------
|-----------------------------------------------------------------------------------------------
|-5h7--7--7---0h5h7--7--7---0h5h7--7--7---0h5h7--0-10p7-----------------------------------------
|--------------------------------------------------------10-10p7--7--7---7-10p7--7--7-----------


|-----------------------------------------------------------------------------------------------
|-----------------------------------------------------------------------------------------------
|-----------------------------------------------------------------------------------------------
|-----------------------------------------------------------------------------------------------
|--------------------------------------------------7--7--7p0--0--0---0-7p0--0--0---0-7p0--0--0--
|--7-10p7--7--7---7-10p7--7--7---7-10p7--7--7--10-----------------------------------------------


|-----------------------------------------------------------------------------------------------
|-----------------------------------------------------------------------------------------------
|-----------------------------------------------------------------------------------------------
|-----------------------------------------------------------------------------------------------
|--0-7p0--0--0----------------------------------------------------------------------------------
|---------------7p5\3---3p0--0--0---0h3p0--0--0---0h3p0--0--0---0h3p0--0--0h5h7-----------------


Outro [x2]
|-----------------------------------------------------------------------------------------------
|-----------------------------------------------------------------------------------------------
|-----------------------------------------------------------------------------------------------
|-----------------------------------------------------------------------------------------------
|-----------------------------------------------------------------------------------------------
|--3p0--0--0---0h3p0--0--0---0h3p0--0--0---0h3p0--0--0--5h6h7-----------------------------------

|-------------------------------------------------------------------------|--0~-----------------
|-------------------------------------------------------------------------|--0~-----------------
|-------------------------------------------------------------------------|--0~-----------------
|-------------------------------------------------------------------------|--2~-----------------
|-----------------------------------------------------5h7-7--5h7-7--------|--2~-----------------
|--3p0--0--0---0h3p0--0--0---0h3p0--0--0---0h3p0--0-----------------------|--0~-----------------


Outro (Trumpet rearr. for Guitar):
|-12--7-----10-----9--7----------------
|--------8---------------10--8---------
|--------------------------------------
|--------------------------------------
|--------------------------------------
|--------------------------------------
Tabbed by aJ`

-----------------------------------------------------------------------------------------------------

Abbey Road outro jam
on the last part of the song you can do this.

|-----------------------------------------------------------------------------------------|
|-----------------------------------------------------------------------------------------|
|-----------------------------------------------------------------------------------------|
|---------------------------------------5-5-5--5-4-4-4---4-5p4-4-4--4-5p4-4-4--4p5-4-4-4--|
|--5h7-7-7---5h7-7-7---5h7-7-7---5h7-7----------------------------------------------------|
|-----------------------------------------------------------------------------------------|

|----------------------------------------------------------|
|----------------------------------------------------------|
|----------------------------------------------------------|
|----5h7-7-7---7-5h7-7-7---7-5h7-7-7---7-5h7-7-7-----------|
|----------------------------------------------------------|
|----------------------------------------------------------|

|-----------------------------------------------------|
|-----------------------------------------------------|
|-----------------------------------------------------|
|----7h9-9-9---7h9-9-9---7h9-9-9---7h9-9-9------------|
|-----------------------------------------------------|
|-----------------------------------------------------|

This part is done fast
|--------------------------------|--------------------------------|
|--------------------------------|--------------------------------|
|-----------12-14p12-14b-14-12---|---------12-14p12--14b-14-12----|
|------12-14------------------14-|--12-14----------------------14-|
|--------------------------------|--------------------------------|
|--------------------------------|--------------------------------|

|-------------------------------|-------------------------------|
|-------------------------------|-------------------------------|
|----------12-14p12---14b-12----|----------12-14p12-14b---12----|
|---12-14--------------------16-|----12-14-------------------16-|
|-------------------------------|-------------------------------|
|-------------------------------|-------------------------------|

|--------------------------------|--------------------------------|
|--------------------------------|--------------------------------|
|-----------12-14p12-14b-14-12---|---------12-14p12--14b-14-12----|
|------12-14------------------14-|--12-14----------------------14-|
|--------------------------------|--------------------------------|
|--------------------------------|--------------------------------|

Not sure of this part, but it sounds quite good
|-------------------------------------|
|-------------------------------------|
|-7-------9-------11--------12--------|
|-7-(x6)--9-(x6)--11--(x6)--12--(x3)--|
|-7-------9-------11--------12--------|
|-------------------------------------|
 
after this the common outro.
Outro [x2]
|-------------------------------------------------------------------|
|-------------------------------------------------------------------|
|-------------------------------------------------------------------|
|-------------------------------------------------------------------|
|-------------------------------------------------------------------|
|--3p0--0--0---0h3p0--0--0---0h3p0--0--0---0h3p0--0--0--5h6h7-------|

|-------------------------------------------------------------------|--0~--|
|-------------------------------------------------------------------|--0~--|
|-------------------------------------------------------------------|--0~--|
|-------------------------------------------------------------------|--2~--|
|-----------------------------------------------------5h6h7--5h6h7--|--2~--|
|--3p0--0--0---0h3p0--0--0---0h3p0--0--0---0h3p0--0-----------------|--0~--|

These are the harmonics Matt plays after the song at Abbey Road. Tremolo arm is used at the end.
E|------------------------12*---|
B|--12*---------7*-----12*------|
G|------12*--5*-----7*----------|
D|------------------------------|
A|------------------------------|
E|------------------------------| 

Tabbed by Pabl0ne *Edited by PhiLam64*

Variation : (Minneapolis,5/10/10,Intro of KoC),Tabbed by MysteriousL1fe)

E|---------12*------------------12*-|
B|--12*-12*---12*------7*-----12*---|
G|---------------12*-5*--7*-12*-----|
D|----------------------------------|
A|----------------------------------|
E|----------------------------------|

This is the very end of the KeyArena gig ,02/04/10,tabbed by MysteriousL1fe(not perfect):

|----------------------------------------------------------------|
|----------------------------------------------------------------|
|----------------------------------------------------------------|
|-----------------------------------------------------------2~---|
|--5h7-7----5h7-10-10-9-7-5-2---2h5*(x5)-7-7-0-0~-----------2~---|
|--------------------------------------------------7-5-3~---0~---|

* kind of trill, (hammer on and off quickly)


Go back to tablature