Host (tablature)

MuseWiki, wiki for the band Muse
Jump to: navigation, search

Guitar

Slight crunch throughout


Intro:

e|---------0--------------0--------------0-------------0----------------0------|
B|---------1--------------0--------------1-------------0----------------1------|
G|---------2--------------1--------------0-------------1----------------2------|
D|----2---------------2--------------2--------------2-------------2------------|
A|-0-----------0--2-----------2--3----------3--2----------2--0------------0----|
E|-----------------------------------------------------------------------------|

e|---------0------------------0-----|
B|---------0------------------1-----|
G|---------1------------------2-----|
D|---------2--------------2---2-----|
A|---2-------------0----------------|
E|------0----------0----------------|


Verse:

e|----------------0---------------0------------------0-------0---0-----|
B|----------------1---------------0------------------3-------3-------3-|
G|----------------0---------------1-------------2----2---2---2---------|
D|------------2-------------------2--------0---------------------------|
A|--0-2-3-----------3-------2-------2----------------------------------|
E|------------------------0--------------------------------------------|

e|-----------1-------------0---------0---0---|
B|-----------2-------------2---------1---1---|
G|-----------2-------------2---------2---2---|
D|--------2--2--------2----2------2--2---2---|
A|-0-------------0------------0--------------|
E|-------------------------------------------|


Bridge:

e|-------------------------------------------------|
B|-------------------------------------------------|
G|--5-5-5-5----------------------------------------|
D|--5-5-5-5---2-2-2-2--3-3-3-3---5-5-5-5-----------|
A|--3-3-3-3---2-2-2-2--3-3-3-3---5-5-5-5-----------|
E|------------0-0-0-0--1-1-1-1---3-3-3-3-----------|


Outro:

E|----0-0-0-0-------------------------------------------------------------------------------------------|
B|----1-1-1-1-------------------------------1-1-1-1-----------------------------------------------------|
G|----2-2-2-2----4-4-4-4--5-5-5-5--4-4-4-4--2-2-2-2-------------------------2--2--4-4--5-5--7--7--------|
D|----2-2-2-2----4-4-4-4--5-5-5-5--4-4-4-4--2-2-2-2---5--3--2--2--2---2-----2--2--4-4--5-5--7--7--------|
A|----0-0-0-0----2-2-2-2--3-3-3-3--2-2-2-2--0-0-0-0---5--3--2--2--2---2-----0--0--2-2--3-3--5--5--------|
E|----------------------------------------------------3--1--0--0--0---0---------------------------------|


Go back to tablature