Futurism (tablature)

MuseWiki, wiki for the band Muse
Jump to: navigation, search
 
Band - Muse
Song - Futurism

h - hammer on
p - pull off
b - bend string up
r - release bend
/ - slide up
\ - slide down
v - vibrato
t - tap (with middle finger of strumming hand)
x - palm mute


Chords:
D/F# :2X0232
Gm   :3X0333
D7/A :X00212
Cm/A :X05543
Cm   :X35543
G    :355433


Intro:

E---------------|--------x-------|----------------|----|
B---------------|--------x-------|----------------|----|
G-3-2-0---6b----|7---------------|---------8b-----|9---|
D-------0-------|----------------|-1-0-3----------|----|
A---------------|----------------|-------3--------|----|
E---------------|----------------|----------------|----|

Verse:
Chorus:
D/F#           Gm           D7/A          Cm/A
E-2-2-2-2-2---|-3-----------|-2-2-2-2-2---|-3----------|
B-3-3-3-3-3---|-3-----------|-1-1-1-1-1---|-4----------|
G-2-2-2-2-2---|-3-----------|-2-2-2-2-2---|-5----------|
D-0-0-0-0-0---|-0-----------|-0-0-0-0-0---|-5----------|
A-X-X-X-X-X---|-X-----------|-0-0-0-0-0---|-0----------|
E-2-2-2-2-2---|-3-----------|-------------|------------|

Cm                          G
E-3--3--3--3--|-3--3--3--3--|-3--3--3--3--|-3--3--3--3-|
B-4--4--4--4--|-4--4--4--4--|-3--3--3--3--|-3--3--3--3-|
G-5--5--5--5--|-5--5--5--5--|-4--4--4--4--|-4--4--4--4-|
D-5--5--5--5--|-5--5--5--5--|-5--5--5--5--|-5--5--5--5-|
A-3--3--3--3--|-3--3--3--3--|-5--5--5--5--|-5--5--5--5-|
E-------------|-------------|-3--3--3--3--|-3--3--3--3-|

Solo:
E------------|-------------|-------------|-------------|
B------------|-------------|-------------|-------------|
G------------|-------------|-2--------5b-|-----6-------|
D-5-------8b-|------9------|-------------|-------------|
A------------|-------------|-------------|-------------|
E------------|-------------|-------------|-------------|


E-3--------3-|-------3-----|-3--------3--|-------3-----|
B----4-------|-4--------4--|----3--------|-3--------3--|
G-------5----|----5--------|-------4-----|----4--------|
D------------|-------------|-------------|-------------|
A------------|-------------|-------------|-------------|
E------------|-------------|-------------|-------------|


E------------|-------------|-------------|-------------|
B------------|-------------|-------------|-------------|
G------------|-------------|-2--------5b-|-----6-------|
D-5-------8b-|------9------|-------------|-------------|
A------------|-------------|-------------|-------------|
E------------|-------------|-------------|-------------|


E-3--------3-|-------3-----|-3--------3--|-------3-----|
B----4-------|-4--------4--|----3--------|-3--------3--|
G-------5----|----5--------|-------4-----|----4--------|
D------------|-------------|-------------|-------------|
A------------|-------------|-------------|-------------|
E------------|-------------|-------------|-------------|

Trem.
E-17------18-|-17-18-17-18-|-----------6-|-5--3h-5-----|
B------------|-------------|-------------|-------------|
G------------|-------------|-2-----------|-------------|
D------------|-------------|-------------|-------------|
A------------|-------------|-------------|-------------|
E------------|-------------|-------------|-------------|


E-3----------|-3-|
B-4----------|-3-|
G-5----------|-4-|
D------------|---|
A------------|---|
E------------|---|


Go back to tablature