Fury (tablature)

MuseWiki, wiki for the band Muse
Jump to: navigation, search
Tabbed by Leo   bwotkins@blueyonder.co.uk (Edited by Alex)

bonus track for japan. wish it was on the proper uk absolution though.


play with slight delay

|-------------| |---------------------------------------------------------------------|
|-------------| |---------------------------------------------------------------------|
|-14~~~~~~~~--| |-14--14-13-13-10-10-13-9~~~~~-10-10-13--14--14-13-13-10-10-13-9~~~~~-|
|-------------| |---------------------------------------------------------------------|
|-------------| |---------------------------------------------------------------------|
|-------------| |---------------------------------------------------------------------|


|---------------------------------------------------------------|
|---------------------------------------------------------------|
|-14--14-13-13-10-10-13-9~~~~~-7--------------------------------|
|--------------------------------10--10-9-10-9-10---9--7-9~~~~~-|
|---------------------------------------------------------------|
|---------------------------------------------------------------|


 verse is mostly bass, but there is some guitar which is heavier and has some late attack on it.

|-------------------------|
|-------------------------|
|-------------------------|
|-7-----------------5-5-6-|
|------3--5--6-7----------|
|-------------------------|
    repeat 4 times


chorus, has no real sort of effects, but is slightly palm muted.


|-----------------|
|-6-6-------------|
|-----7-7-----7-7-|
|---------7-7-----|  x4
|-----------------|
|-----------------|

|-----------------|
|-6-6-------------|
|-----5-5-----5-5-|
|---------7-7-----|  x4
|-----------------|
|-----------------|

|-----------------|
|-5-5-------------|
|-----5-5-----5-5-|
|---------5-5-----|  x4
|-----------------|
|-----------------|

|-----------------|
|-5-5-------------|
|-----4-4-----4-4-|
|---------6-6-----|  x4
|-----------------|
|-----------------|

repeat for a full chorus




play verse again, , then chorus, then this part - quite heavy


(|--------------------------|
(|--------------------------|
(|--------------------------|
(|--------------------------|  x2 (May need to partially mute the open note before playing the next note)
(|-7------------7-------5-7-|
(|---3-6-7-0------3-6-7-----|   (Double sounding when 5-7 played is delay, and the sound of the bass guitar)

|----------------------------------|)
|-11-11--11-11--11-11--11-11-11-11-|)
|----------------------------------|)
|----------------------------------|)
|----------------------------------|)
|----------------------------------|)

(Matt doesn't seem to play these high notes live, instead, he repeats the first part 1 more time, and on the first play of this section repeats the 5-7 at the end of the
first line a few times quickly.)

now this part with delay



|---------------------------------------|
|---------------------------------------|
|-14--14-13-13-10-10-13-9~~~~~-10-10-13-|
|---------------------------------------|  x2
|---------------------------------------|
|---------------------------------------|


|----------------------------------------------------------------|
|-----12----12b-------15---12--13--12-13-12-13--12-------12~~~~~-|
|-14-----14-----14-13--------------------------------14----------|
|----------------------------------------------------------------|
|----------------------------------------------------------------|
|----------------------------------------------------------------|
(The spacing for the tune here isn't great, but you can listen to the track (this bit starts at ~3.:35) to get the tune)

chorus, then part in brackets (part after second chorus)



and that's it


Go back to tablature