Fillip (tablature)

MuseWiki, wiki for the band Muse
Jump to: navigation, search
Intro
E----------------------x--x--x----------------------|
B----------------------x--x--x----------------------|
G--12-12-12-12--12-12-12-12-12--12-12-12-12---------|
D--x--x--x--x---x--x--12-12-12--x--x--x--x----------|
A--x--x--x--x---x--x--10-10-10--x--x--x--x----------|
E--x--x--x--x---x--x--10-10-10--x--x--x--x----------| x2

E---------------------x--x--x--------------------------------x--x--x---------------|
B---------------------x--x--x--------------------------------x--x--x--12-12--------|
G--x-x-12-12--12-12--12-12-12--x-x-12-12--x-x-12-12--12-12--12-12-12--12-12-12-12--|
D--x-x--x--x---x--x--12-12-12--x-x--x--x--x-x--x--x---x--x--12-12-12---x--x--x--x--|
A--x-x--x--x---x--x--10-10-10--x-x--x--x--x-x--x--x---x--x--10-10-10---x--x--x--x--|
E--x-x--x--x---x--x--10-10-10--x-x--x--x--x-x--x--x---x--x--10-10-10---x--x--x--x--|

E----------------------------------------------------|
B--12-12--x--x-12-12--x--x-12-12--x--x-12-12--x--x---|
G--12-12--x--x--x--x--x--x-12-12--x--x--x--x--x--x---|
D---x--x--x--x-12-12--x--x--x--x--x--x-12-12--x--x---|
A---x--x-10-10--x--x-10-10--x--x-10-10--x--x-10-10---|
E---x--x--x--x--x--x--x--x--x--x--x--x--x--x--x--x---| x4

E----------------------------|
B--12-12--x--x-12-12--x--x---|
G--12-12--x--x--x--x--x--x---|
D---x--x--x--x-12-12--x--x---|
A---x--x-10-10--x--x-10-10---|
E---x--x--x--x--x--x--x--x---|

Verse (palm mute)
E-----------------------------------|
B---12-----12-----12-----12---------|
G---12------x-----12------x---------|
D----------12------------12---------|
A------10-----10-----10-------------|
E-----------------------------------| x7
it's happening soon etc

E---------------------------------------|
B-----12-12-----------------------------|
G-----12-12-----------------------------|
D-----12-12-----------------------------|
A--10-----------------------------------|
E---------------------------------------|
  a-ny-bo-dy

Chorus
E--3-3-3-3-3-3-3-3-------------------0-0-0-0-0-0-0-0--------|
B--3-3-3-3-3-3-3-3--3-3-3-3-3-3-3-3--0-0-0-0-0-0-0-0--------|
G--0-0-0-0-0-0-0-0--2-2-2-2-2-2-2-2--0-0-0-0-0-0-0-0--------|
D--0-0-0-0-0-0-0-0--0-0-0-0-0-0-0-0--2-2-2-2-2-2-2-2--------|
A------------------------------------2-2-2-2-2-2-2-2--------|
E--3-3-3-3-3-3-3-3--2-2-2-2-2-2-2-2--0-0-0-0-0-0-0-0--------|
    and its guna be...   our last memory.......

E-------------------------------------------------------|
B--5-5-5-5-5-5-5-5--5-5-5-5-5-5-5-5--7-7-7-7-7-7-7-7----|
G--4-4-4-4-4-4-4-4--5-5-5-5-5-5-5-5--7-7-7-7-7-7-7-7----|
D--2-2-2-2-2-2-2-2--5-5-5-5-5-5-5-5--7-7-7-7-7-7-7-7----|
A-------------------3-3-3-3-3-3-3-3--5-5-5-5-5-5-5-5----|
E--4-4-4-4-4-4-4-4--3-3-3-3-3-3-3-3--5-5-5-5-5-5-5-5----|
   and its led me on      and on          to you

E--2-2-2-2-2-2-2-2--2-2-2-2-2-2-2-2-----|
B--2-2-2-2-2-2-2-2--2-2-2-2-2-2-2-2-----|
G--2-2-2-2-2-2-2-2--3-3-3-3-3-3-3-3-----|
D--4-4-4-4-4-4-4-4--4-4-4-4-4-4-4-4-----|
A--4-4-4-4-4-4-4-4--4-4-4-4-4-4-4-4-----|
E--2-2-2-2-2-2-2-2--2-2-2-2-2-2-2-2-----|

After Chorus
E----------------------x--x--x----------------------|
B----------------------x--x--x----------------------|
G--12-12-12-12--12-12-12-12-12--12-12-12-12---------|
D--x--x--x--x---x--x--12-12-12--x--x--x--x----------|
A--x--x--x--x---x--x--10-10-10--x--x--x--x----------|
E--x--x--x--x---x--x--10-10-10--x--x--x--x----------| x2

E---------------------x--x--x--------------------------------x--x--x--|
B---------------------x--x--x--------------------------------x--x--x--|
G--x-x-12-12--12-12--12-12-12--x-x-12-12--x-x-12-12--12-12--12-12-12--|
D--x-x--x--x---x--x--12-12-12--x-x--x--x--x-x--x--x---x--x--12-12-12--|
A--x-x--x--x---x--x--10-10-10--x-x--x--x--x-x--x--x---x--x--10-10-10--|
E--x-x--x--x---x--x--10-10-10--x-x--x--x--x-x--x--x---x--x--10-10-10--|

Verse

Chorus

then this
E---------------------------------------|
B---------------------------------------|
G--4-4-4-4-4-4-4-4--3-3-3-3-3-3-3-3-----|
D--x-x-x-x-x-x-x-x--x-x-x-x-x-x-x-x-----|
A--2-2-2-2-2-2-2-2--1-1-1-1-1-1-1-1-----|
E---------------------------------------|

now it's the piano but i've tabbed it out :-D

E-----------2---------------3------------|
B--3--------2----2----------3--3---------|
G----3------3------3---3----3----3-------|
D--------5--4--------4---4--5-------5----|
A-----------4--4------------5---------5--|
E-----------2---------------3------------|
accuse me                  trust me

E----------------------------------|
B----3-----------2-----------------|
G------3--3--------3---------------|
D---------4------------------------|
A---------4--4---------------------|
E--3------2----2-------------------|
i never knew            that

E---------------------------------------|
B--------------------------1------------|
G--1------1--1--------1------3--1-------|
D--3--3------2--------3--3--------------|
A--3---------2--2-----3-----------------|
E--1----1----0-----0--1-----------------|
 you were the one you were the

E------------------------|
B---------0--------------|
G-------1----0-----------|
D--2--2------2-----------|
A------------------------|
E--0---------0-----------|
  one     ooooohhh

Guitar back!
E---------------------------0-----------|
B-----------------------0-----0---------|
G--------0-0-0-0-0--0-----0-----0-------|
D--------2-2-2-2-2----2-----------2-----|
A--2-2-2-2-2-2-2-2----------------------|
E--0-0-0-0-0-0-0-0----------------------|

E------------------------------|
B------------------------------|
G-12-12-12-12-12-12-12-12------|
D--x--x--x--x--x--x--x--x------|
A--x--x--x--x--x--x--x--x------|
E--x--x--x--x--x--x--x--x------| x8

E------------------------------------------------------|
B------------------------------------------------------|
G--4-4-2-4-7-7--4-4-2-4-9-9--4-4-2-4-9-9--7-5-5-4-2-4--|
D------------------------------------------------------|
A--2-2-0-2-5-5--2-2-0-2-7-7--2-2-0-2-7-7--5-3-3-2-0-2--|
E------------------------------------------------------|

Chorus
E--3-3-3-3-3-3-3-3-------------------0-0-0-0-0-0-0-0--------|
B--3-3-3-3-3-3-3-3--3-3-3-3-3-3-3-3--0-0-0-0-0-0-0-0--------|
G--0-0-0-0-0-0-0-0--2-2-2-2-2-2-2-2--0-0-0-0-0-0-0-0--------|
D--0-0-0-0-0-0-0-0--0-0-0-0-0-0-0-0--2-2-2-2-2-2-2-2--------|
A------------------------------------2-2-2-2-2-2-2-2--------|
E--3-3-3-3-3-3-3-3--2-2-2-2-2-2-2-2--0-0-0-0-0-0-0-0--------|
    and its guna be...   our last memory.......

E-------------------------------------------------------|
B--5-5-5-5-5-5-5-5--5-5-5-5-5-5-5-5--7-7-7-7-7-7-7-7----|
G--4-4-4-4-4-4-4-4--5-5-5-5-5-5-5-5--7-7-7-7-7-7-7-7----|
D--2-2-2-2-2-2-2-2--5-5-5-5-5-5-5-5--7-7-7-7-7-7-7-7----|
A-------------------3-3-3-3-3-3-3-3--5-5-5-5-5-5-5-5----|
E--4-4-4-4-4-4-4-4--3-3-3-3-3-3-3-3--5-5-5-5-5-5-5-5----|
   and its led me on      and on          to you

E------------------------------|
B------------------------------|
G--9-9-9--9-7-7----------------|
D------------------------------|
A--7-7-7--7-5-5----------------|
E------------------------------|

E--3-3-3-3-3-3-3-3-------------------0-0-0-0-0-0-0-0--------|
B--3-3-3-3-3-3-3-3--3-3-3-3-3-3-3-3--0-0-0-0-0-0-0-0--------|
G--0-0-0-0-0-0-0-0--2-2-2-2-2-2-2-2--0-0-0-0-0-0-0-0--------|
D--0-0-0-0-0-0-0-0--0-0-0-0-0-0-0-0--2-2-2-2-2-2-2-2--------|
A------------------------------------2-2-2-2-2-2-2-2--------|
E--3-3-3-3-3-3-3-3--2-2-2-2-2-2-2-2--0-0-0-0-0-0-0-0--------|
    and its guna be...   our last memory.......

E-------------------------------------------------------|
B--5-5-5-5-5-5-5-5--5-5-5-5-5-5-5-5--7-7-7-7-7-7-7-7----|
G--4-4-4-4-4-4-4-4--5-5-5-5-5-5-5-5--7-7-7-7-7-7-7-7----|
D--2-2-2-2-2-2-2-2--5-5-5-5-5-5-5-5--7-7-7-7-7-7-7-7----|
A-------------------3-3-3-3-3-3-3-3--5-5-5-5-5-5-5-5----|
E--4-4-4-4-4-4-4-4--3-3-3-3-3-3-3-3--5-5-5-5-5-5-5-5----|
   and its led me on      and on          to you

E--2--------2----2-----2------------------|
B--2--------2------2-----2---2------------|
G--2--------3--------3-----2---2---2------|
D--4--------4--------------------4---4----|
A--4--------4-----------------------------|
E--2--------2-----------------------------|
           you......  you......

E----------------------------------------2--------2---|
B----------------------2---2---------------2------2---|
G------------------------3---3-------3-------3----2---|
D----4---4-----------4---------4-------4-------4--4---|
A--4---4---4---4-----------------4----------------4---|
E------------2---2-2---------------2--------------2---|
  you............              ooooohhh


Go back to tablature