Falling Down (tablature)

MuseWiki, wiki for the band Muse
Jump to: navigation, search
-------------------------------0----------------------------------0-----0-----
-------------------------3-------3-----3------------------2-2-----0---0---0---
-6---6---6----6/7/6--------2-------2---2----4/5/4-2---2---2---2---1-1---------
-7-7---7-5----------5--4-----4-------4-3--3---------4---4-2-----2-2-----------
-7-------7--7-------7-------------------------------------0-------2-----------
------------------------------------------------------------------0-----------

                                                                              

-----------0------------------------------------------------------------------
-----3-------3---2------------------------------------------------------------
-1-----2-------2-2------------------------------------------------------------
---0-----0-------2------------------------------------------------------------
-----------------0------------------------------------------------------------
------------------------------------------------------------------------------


A    A7         D  Dm
I’m falling down
                     A            E
And fifteen thousand people scream
                            D       A
They were all begging for your dream
I’m falling down
Five thousand houses burning down (yeah)
No-one is gonna save this town

F#m
Too late
    F                        A
I already found what I was looking for
C#7          D
You know it wasn’t here
  B7    E7
No it wasn’t here

I was calling your name
But you would never hear me sing
You wouldn’t let me begin
So I’m crawling away
´Cause you broke my heart in two
No, I will not forget you

Too late
I already found what I was looking for
You know it wasn’t you
No, it wasn’t you
Noooooo

Falling away
You would never see me through
No, I could not forget you
Falling down
Five thousand house burning down
No-one is gonna save this town

Too late
I already found what I was looking for
You know it wasn’t you
No, it wasn’t you
No

Falling down
Now the world is upside down
I’m heading straight for the clouds


Go back to tablature