Darkshines (tablature)

MuseWiki, wiki for the band Muse
Jump to: navigation, search
Muse Tab
Name Darkshines
Length 04:47
Tuning Standard
Tempo 110bpm
Timing 4/4

Guitar

Intro:

e|--------------------------------------------------------------------|
B|--------------------------------------------------------------------|
G|--------------------------------------------------------------------|
D|------------------------------------------------------/7---5---3----|
A|----------------5-7----8------7--5------------------4---------------|
E|--------------------------------------------------------------------|

e|----------------------------------------------------------------------------|
B|----------------------------------------------------------------------------|
G|-------------------------------------------------------------------6br------|
D|--2h3p2-------2----------------------------7---5---7----7br--7--5-----------|
A|-----------4-----4--1h4p1p0h1p0---------------------------------------------|
E|---------------------------------------2/5----------------------------------|

e|----------------------------------------------------------------|
B|---------------------------14~~---------------------------------|
G|---------7h9-10---9---7////12~~---------------------------------|
D|----------------------------------------------------------------|
A|----------------------------------------------------------------|
E|----------------------------------------------------------------|


Verse:
(Let Ring)

e|--------3----------1h3p1--------0---------------------------|
B|-----3-----------------------------------------2------------|
G|--2-----------------------------------------0---------------|
D|------------------------------------------------------------|
A|------------------------------------------------------------|
E|------------------------------------------------------------|

e|----------------------------------------------1------------|
B|------------------3------------------------0---------------|
G|------------------------3-------------1--------------------|
D|---------------------0-------------0-----------------------|
A|-----------------------------------------------------------|
E|-----------------------------------------------------------|

e|-----------------------------------------3------------|
B|--------------------------------------3---------------|
G|------0----------------------------2------------------|
D|------------------------------------------------------|
A|------0-----------------------------------------------|
E|------------------------------------------------------|

e|--1------------------0----------------------------------|
B|--3------------------------2----------------------------|
G|--2---------------------0-------------------------------|
D|--------------------------------------------------------|
A|--------------------------------------------------------|
E|--------------------------------------------------------|

e|-----------------------1------------------------------------------------------|
B|--3--------------------0------------------2-----------------------------------|
G|--------3--------------1------------------0-----------------------------------|
D|-----0-----------------0------------------2-----------------------------------|
A|------------------------------------------0----------------------------12\\\--|
E|------------------------------------------------------------------------------|

Chorus:

e|--------------------------------------------------------------------|
B|--6--6----6-------------6--6----6-----------------------------------|
G|--7--7----7-------------7--7----7--------------6--------------------|
D|--7--7----7-------6b----7--7----7--------6b----7----------------6b--|
A|--5--5----5-------------5--5----5--------------7----------12/-------|
E|-------------10\-------------------10\---------5--5----5------------|

e|-----------------------------------------------6--------------------|
B|-------------------------3---------------------6---------------9----|
G|--6----------------------3---------------------7---------------7----|
D|--7----------------6b----0---------------7b----8---------------8----|
A|--7----------12/-------------------------------8---------------8----|
E|--5--5----5--------------3--3----3--3----------6--6----6--6---------|

e|----------------------------------------------|
B|--8--8----8--8----8------8--8----8--8----8----|
G|--6--6----6--6----6------6--6----6--6----6----|
D|--7--7----7--7----7------7--7----7--7----7----|
A|--7--7----7--7----7------7--7----7--7----7----|
E|----------------------------------------------|

e|-----------------------------------------------------------------|
B|--10--------------------------10---8---6----5------6p5---5-------|
G|----------------------------x--------------------------7---------|
D|--------------------------x--------------------------------------|
A|-----------------------------------------------------------------|
E|-----------------------------------------------------------------|

e|-----------------------------------------------------------------|
B|----------10---8---6----5------6p5-3--------------3-5-6---5---3--|
G|--------x--------------------------------------------------------|
D|------x----------------------------------------------------------|
A|-----------------------------------------------------------------|
E|-----------------------------------------------------------------|

e|----------------------------------------------------------|
B|--2----------------------------------8--8----8--8----8----|
G|-------------------------------------6--6----6--6----6----|
D|-------------------------------------7--7----7--7----7----|
A|-------------------------------------7--7----7--7----7----|
E|----------------------------------------------------------|

Chorus:

e|--------------------------------------------------------------------|
B|--6--6----6-------------6--6----6-----------------------------------|
G|--7--7----7-------------7--7----7--------------6--------------------|
D|--7--7----7-------6b----7--7----7--------6b----7----------------6b--|
A|--5--5----5-------------5--5----5--------------7----------12/-------|
E|-------------10\-------------------10\---------5--5----5------------|

e|-----------------------------------------------6--------------------|
B|-------------------------3---------------------6---------------9----|
G|--6----------------------3---------------------7---------------7----|
D|--7----------------6b----0---------------7b----8---------------8----|
A|--7----------12/-------------------------------8---------------8----|
E|--5--5----5--------------3--3----3--3----------6--6----6--6---------|

e|----------------------------------------------|
B|--8--8----8--8----8------8--8----8--8----8----|
G|--6--6----6--6----6------6--6----6--6----6----|
D|--7--7----7--7----7------7--7----7--7----7----|
A|--7--7----7--7----7------7--7----7--7----7----|
E|----------------------------------------------|


Solo:

e|--------------------------------------------------------------|
B|----11----------------------11---10---8----6------------------|
G|---x----------------------x-----------------------7-----------|
D|--x---------------------x----------------------------7--------|
A|--------------------------------------------------------------|
E|--------------------------------------------------------------|

e|-------------------------------------------------------------|
B|------------------------11----------------------11---10---8--|
G|-----------------------x----------------------x--------------|
D|--------7---6---7-----x---------------------x----------------|
A|-------------------------------------------------------------|
E|-------------------------------------------------------------|

e|-----------------------------------------------------------------------------|
B|--6------------------------------------------13----------------14------------|
G|---------7----------------------------------x-----------------x--------------|
D|------------7----------------7---6---7-----x-----------------x---------------|
A|-----------------------------------------------------------------------------|
E|-----------------------------------------------------------------------------|

e|-----------------------------------------------------------------|
B|----15------13p11-10---------------------------------------------|
G|---x----------------------------------------------------4--------|
D|--x--------------------------------------------6-----------------|
A|-----------------------------------------------------------------|
E|-----------------------------------------------------------------|

e|------------------------------------------------------------|
B|-----------------------10-----------------------------------|
G|--7--------10------------------------------9----------------|
D|------------------------------------------------------------|
A|------------------------------------------------------------|
E|------------------------------------------------------------|

e|---------------------------------------------------------------|
B|--------5------------------------------------------------------|
G|-----7--------------------------9br----7----9br----7-----------|
D|--8----------------------------x------------------------7------|
A|------------------------------x--------------------------------|
E|-----------------------------x---------------------------------|

e|----------------------------------------------------------------|
B|----------------------------------------------------------------|
G|-------------------------9----------------------------9br----7--|
D|----------x7---6---7---------------------------------x----------|
A|---------x------------------------------------------x-----------|
E|--------x------------------------------------------x------------|

e|-----------------------------------------------------------------------|
B|-----------------------------------------------------------------------|
G|--9br----7-------------------------------------------------------------|
D|------------7-----------------------7---8-----11h12-------------12h14--|
A|---------------------------7h8-10--------------------------------------|
E|-----------------------------------------------------------------------|

e|------------------------------------------------------------------------|
B|-----------------------------14h15p14-11-14-11p10----10h11-14h15p14-11--|
G|-------13--------13---14------------------------------------------------|
D|--15--------15----------------------------------------------------------|
A|------------------------------------------------------------------------|
E|------------------------------------------------------------------------|

e|----------------------------------------------------------------------|
B|--14-11p10----10--10\\8\\6\\5\\3-------------3----3h5h6p5-------------|
G|-----------------------------------------------------------------7----|
D|----------------------------------------------------------------------|
A|----------------------------------------------------------------------|
E|----------------------------------------------------------------------|

e|-------------------------------------------------------------------|
B|-------------------------------------------------------------------|
G|--7----------------------------------------------------------------|
D|-------------------------------------------------------------------|
A|-------------------------------------------------------------------|
E|-------------------------------------------------------------------|

Code:

e|----------------------------------------------|
B|--8--8----8--8----------8--8----8--8----8--8--|
G|--6--6----6--6----------6--6----6--6----6--6--|
D|--7--7----7--7----------7--7----7--7----7--7--|
A|--7--7----7--7----------7--7----7--7----7--7--|
E|----------------------------------------------|

e|--------------------------------------------------------|
B|--8--8----8--8----8----3--------------------------------|
G|--6--6----6--6----6----2--------------------------------|
D|--7--7----7--7----7----0--------------------------------|
A|--7--7----7--7----7-------------------------------------|
E|--------------------------------------------------------|


Go back to tablature