Butterflies & Hurricanes (tablature)

MuseWiki, wiki for the band Muse
Jump to: navigation, search
Muse Tab
Name Butterflies & Hurricanes
Length 05:01
Tuning Drop-D
Tempo 119bpm
Timing 4/4 (Except piano solo)

Guitar


e|----------------------------------------------------------------
B|----------------------------------------------------------------
G|----------------------------------------------------------------
D|----------------------------------------------------------------
A|----------------------------------------------------------------
D|-0-12-12-0-12-12.0.12.0.12.12.0-12-12-0-12-0-12-12-0-12-12-0-12-

Live intro

e|----------------------
B|----------------------
G|----------------------
D|-15.12.12-12-15.12.12- (random repeating)
A|----------------------
D|----------------------

change
e|-------------------------------------------------------
B|-------------------------------------------------------
G|-------------------------------------------------------
D|-------------------------------------------------------
A|----17-17-17-17-17-17-17-17-17-17-17-17-17-17-17-17-17-
D|----0--12-12-0--12-12-0--12.0--12-12-0--12-12-0--12-0--

everything 
e|-------------------------------------------------------
B|-------------------------------------------------------
G|-------------------------------------------------------
D|-------------------------------------------------------
A|----16-16-16-16-16-16-16-16-16-16-16-16-16-16-16-16-16-
D|----0--12-12-0--12-12-0-12.-0--12-12-0--12-12-0--12-0--

you are 
e|-------------------------------------------------------
B|-------------------------------------------------------
G|-------------------------------------------------------
D|-------------------------------------------------------
A|---15--15-15-15-15-15-15-15-15-15-15-15-15-15-15-15-15-
D|----0--12-12-0--12-12-0--12-0--12-12-0--12-12-0--12-0--

and everything
e|-------------------------------------------------------
B|-------------------------------------------------------
G|-------------------------------------------------------
D|-------------------------------------------------------
A|----14-14-14-14-14-14-14-14-14-14-14-14-14-14-14-14-14-
D|----0--12-12-0--12-12-0--12-0--12-12-0--12-12-0--12-0--

you were
e|-------------------------------------------------------
B|-------------------------------------------------------
G|-------------------------------------------------------
D|-------------------------------------------------------
A|---13--13-13-13-13-13-13-13-13-13-13-13-13-13-13-13-13-
D|----0--12-12-0--12-12-0--12-0--12.12-0--12-12-0--12-0--

e|-------------------------------------------
B|-------------------------------------------
G|-------------------------------------------
D|-------------------------------------------
A|-------------------------------------------
D|--12-12-12-11-11-11-10-10-10-9-9-9-8-8-7-7-

your number has been
e|------------------------------------------------------------------
B|------------------------------------------------------------------
G|------------------------------------------------------------------
D|------------------------------------------------------------------
A|------------------------------------------------------------------
D|--6-6-6-6-6-6-6-6-6-6-6-6-6-6-6-6-2-2-2-2-2-2-2-2-2-2-2-2-2-2-2-2-

called
e|----------------------------------------------------------------------------------
B|----------------------------------------------------------------------------------
G|----------------------------------------------------------------------------------
D|--7-7-7-7-7-7-7-7-7-7-7-7-8-8-8-8-11-11-11-11-11-11-11-11-11-11-11-11-11-11-11-11-
A|--7-7-7-7-7-7-7-7-7-7-7-7-7-7-7-7--7--7--7--7--7--7--7--7--7--7--7--7--7--7--7--7-
D|--7-7-7-7-7-7-7-7-7-7-7-7-7-7-7-7--7--7--7--7--7--7--7--7--7--7--7--7--7--7--7--7-

fights
e|-------------------------------------------------------
B|-------------------------------------------------------
G|-------------------------------------------------------
D|-------------------------------------------------------
A|----17-17-17-17-17-17-17-17-17-17-17-17-17-17-17-17-17-
D|----0--12-12-0--12-12-0-12-0--12-12-0--12-12-0--12-0---

and battles have
e|-------------------------------------------------------
B|-------------------------------------------------------
G|-------------------------------------------------------
D|-------------------------------------------------------
A|---16--16-16-16-16-16-16-16-16-16-16-16-16-16-16-16-16-
D|----0--12-12-0--12-12-0--12-0--12-12-0--12-12-0--12-0--

begun
e|--------------------------------------------------------
B|--------------------------------------------------------
G|--------------------------------------------------------
D|--------------------------------------------------------
A|---15--15-15-15-15-15-15-15-15-15-15-15-15-15-15-15-15-
D|----0--12-12-0--12-12-0--12-0--12-12-0--12-12-0--12-0--

revenge will surely
e|-------------------------------------------------------
B|-------------------------------------------------------
G|-------------------------------------------------------
D|-------------------------------------------------------
A|----14-14-14-14-14-14-14-14-14-14-14-14-14-14-14-14-14-
D|----0--12-12-0--12-12-0--12-0--12-12-0--12-12-0--12-0--

come
e|-------------------------------------------------------
B|-------------------------------------------------------
G|-------------------------------------------------------
D|-------------------------------------------------------
A|---13--13-13-13-13-13-13-13-13-13-13-13-13-13-13-13-13-
D|----0--12-12-0--12-12-0--12-0--12-12-0--12-12-0--12-0--

e|-------------------------------------------
B|-------------------------------------------
G|-------------------------------------------
D|-------------------------------------------
A|-------------------------------------------
D|--12-12-12-11-11-11-10-10-10-9-9-9-8-8-7-7-

your hard times are
e|------------------------------------------------------------------
B|------------------------------------------------------------------
G|------------------------------------------------------------------
D|------------------------------------------------------------------
A|------------------------------------------------------------------
D|--6-6-6-6-6-6-6-6-6-6-6-6-6-6-6-6-2-2-2-2-2-2-2-2-2-2-2-2-2-2-2-2-

ahead
e|----------------------------------------------------------------------------------
B|----------------------------------------------------------------------------------
G|----------------------------------------------------------------------------------
D|--7-7-7-7-7-7-7-7-7-7-7-7-8-8-8-8-11-11-11-11-11-11-11-11-11-11-11-11-11-11-11-11-
A|--7-7-7-7-7-7-7-7-7-7-7-7-7-7-7-7--7--7--7--7--7--7--7--7--7--7--7--7--7--7--7--7-
D|--7-7-7-7-7-7-7-7-7-7-7-7-7-7-7-7--7--7--7--7--7--7--7--7--7--7--7--7--7--7--7--7-

best, you've got to
e|-----------------------------------------------------------------
B|-----------------------------------------------------------------
G|---------------------------------7-7-7-7-7-7-7-7-7-7-7-7-7-7-7-7-
D|-8-8-8-8-8-8-8-8-8-8-8-8-8-8-8-8-7-7-7-7-7-7-7-7-7-7-7-7-7-7-7-7-
A|-8-8-8-8-8-8-8-8-8-8-8-8-8-8-8-8-8-8-8-8-8-8-8-8-8-8-8-8-8-8-8-8-
D|-8-8-8-8-8-8-8-8-8-8-8-8-8-8-8-8-0-0-0-0-0-0-0-0-0-0-0-0-0-0-0-0-

be the best, you've got to
e|-----------------------------------------------------------------
B|-----------------------------------------------------------------
G|---------------------------------7-7-7-7-7-7-7-7-7-7-7-7-7-7-7-7-
D|-8-8-8-8-8-8-8-8-8-8-8-8-8-8-8-8-7-7-7-7-7-7-7-7-7-7-7-7-7-7-7-7-
A|-8-8-8-8-8-8-8-8-8-8-8-8-8-8-8-8-8-8-8-8-8-8-8-8-8-8-8-8-8-8-8-8-
D|-8-8-8-8-8-8-8-8-8-8-8-8-8-8-8-8-0-0-0-0-0-0-0-0-0-0-0-0-0-0-0-0-

change the world, and use this chance to be heard
e|---------------------------------------------------------------------------------
B|---------------------------------------------------------------------------------
G|---------------------------------------------------------------------------------
D|-8-8-8-8-8-8-8-8-8-8-8-8-8-8-8-8-3-3-3-3-3-3-3-3-7-7-7-7-7-7-7-7-8-8-8-8-8-8-8-8-
A|-8-8-8-8-8-8-8-8-8-8-8-8-8-8-8-8-3-3-3-3-3-3-3-3-4-4-4-4-4-4-4-4-5-5-5-5-5-5-5-5-
D|-8-8-8-8-8-8-8-8-8-8-8-8-8-8-8-8-3-3-3-3-3-3-3-3-4-4-4-4-4-4-4-4-5-5-5-5-5-5-5-5-

your time is
e|-----------------------------------------------------------------
B|-----------------------------------------------------------------
G|-----------------------------------------------------------------
D|-8-8-8-8-8-8-8-8-8-8-8-8-8-8-8-8-3-3-3-3-3-3-3-3-3-3-3-3-3-3-3-3-
A|-8-8-8-8-8-8-8-8-8-8-8-8-8-8-8-8-3-3-3-3-3-3-3-3-3-3-3-3-3-3-3-3-
D|-8-8-8-8-8-8-8-8-8-8-8-8-8-8-8-8-3-3-3-3-3-3-3-3-3-3-3-3-3-3-3-3-

your time is(now)
e|-----------------------------------------------------------------
B|-----------------------------------------------------------------
G|-----------------------------------------------------------------
D|-8-8-8-8-8-8-8-8-8-8-8-8-8-8-8-8-3-3-3-3-3-3-3-3-3-3-3-3-3-3-3-3-
A|-8-8-8-8-8-8-8-8-8-8-8-8-8-8-8-8-3-3-3-3-3-3-3-3-3-3-3-3-3-3-3-3-
D|-8-8-8-8-8-8-8-8-8-8-8-8-8-8-8-8-3-3-3-3-3-3-3-3-3-3-3-3-3-3-3-3-

now
e|-----------------------------------------------------------------
B|-----------------------------------------------------------------
G|-----------------------------------------------------------------
D|-8-8-8-8-8-8-8-8-8-8-8-8-8-8-8-8-8-8-8-8-8-8-8-8-8-8-8-8-8-8-8-8-
A|-7-7-7-7-7-7-7-7-7-7-7-7-7-7-7-7-7-7-7-7-7-7-7-7-7-7-7-7-7-7-7-7-
D|-7-7-7-7-7-7-7-7-7-7-7-7-7-7-7-7-7-7-7-7-7-7-7-7-7-7-7-7-7-7-7-7-

e|-------------------------------------------------------------------------
B|-------------------------------------------------------------------------
G|-------------------------------------------------------------------------
D|---7-x-x-/14-x-x-11-x-x-8-x-x-5-x-8-x-7-x-x-/14-x-x-11-x-x-8-x-x-5-x-11x-
A|---7-x-x-/14-x-x-11-x-x-8-x-x-5-x-8-x-7-x-x-/14-x-x-11-x-x-8-x-x-5-x-11x-
D|---7-x-x-/14-x-x-11-x-x-8-x-x-5-x-8-x-7-x-x-/14-x-x-11-x-x-8-x-x-5-x-11x-

change
e|-------------------------------------------------------
B|-------------------------------------------------------
G|-------------------------------------------------------
D|----12-12-12-12-12-12-12-12-12-12-12-12-12-12-12-12-12-
A|----17-17-17-17-17-17-17-17-17-17-17-17-17-17-17-17-17-
D|----0--0--0--0--0--0--0--0--0--0--0--0--0--0--0--0--0--

everything
e|-------------------------------------------------------
B|-------------------------------------------------------
G|-------------------------------------------------------
D|----12-12-12-12-12-12-12-12-12-12-12-12-12-12-12-12-12-
A|----16-16-16-16-16-16-16-16-16-16-16-16-16-16-16-16-16-
D|----0--0--0--0--0--0--0--0--0--0--0--0--0--0--0--0--0--

you are
e|-------------------------------------------------------
B|-------------------------------------------------------
G|-------------------------------------------------------
D|----12-12-12-12-12-12-12-12-12-12-12-12-12-12-12-12-12-
A|----15-15-15-15-15-15-15-15-15-15-15-15-15-15-15-15-15-
D|----0--0--0--0--0--0--0--0--0--0--0--0--0--0--0--0--0--

and everything 
e|-------------------------------------------------------
B|-------------------------------------------------------
G|-------------------------------------------------------
D|----12-12-12-12-12-12-12-12-12-12-12-12-12-12-12-12-12-
A|----14-14-14-14-14-14-14-14-14-14-14-14-14-14-14-14-14-
D|----0--0--0--0--0--0--0--0--0--0--0--0--0--0--0--0--0--

you were
e|-------------------------------------------------------
B|-------------------------------------------------------
G|-------------------------------------------------------
D|----12-12-12-12-12-12-12-12-12-12-12-12-12-12-12-12-12-
A|----13-13-13-13-13-13-13-13-13-13-13-13-13-13-13-13-13-
D|----0--0--0--0--0--0--0--0--0--0--0--0--0--0--0--0--0--

e|-------------------------------------
B|-------------------------------------
G|-------------------------------------
D|-------------------------------------
A|-------------------------------------
D|--12-0-0-11-0-0-10-0-0-9-0-0-8-0-7-0-

your number has been called
e|------------------------------------------------------------------
B|------------------------------------------------------------------
G|------------------------------------------------------------------
D|--6-6-6-6-6-6-6-6-6-6-6-6-6-6-6-6-2-2-2-2-2-2-2-2-2-2-2-2-2-2-2-2-
A|--6-6-6-6-6-6-6-6-6-6-6-6-6-6-6-6-2-2-2-2-2-2-2-2-2-2-2-2-2-2-2-2-
D|--6-6-6-6-6-6-6-6-6-6-6-6-6-6-6-6-2-2-2-2-2-2-2-2-2-2-2-2-2-2-2-2-

e|----------------------------------------------------------------------------------
B|----------------------------------------------------------------------------------
G|----------------------------------------------------------------------------------
D|--7-7-7-7-7-7-7-7-7-7-7-7-8-8-8-8-11-11-11-11-11-11-11-11-11-11-11-11-11-11-11-11-
A|--7-7-7-7-7-7-7-7-7-7-7-7-7-7-7-7--7--7--7--7--7--7--7--7--7--7--7--7--7--7--7--7-
D|--7-7-7-7-7-7-7-7-7-7-7-7-7-7-7-7--7--7--7--7--7--7--7--7--7--7--7--7--7--7--7--7-

fights
e|-------------------------------------------------------
B|-------------------------------------------------------
G|-------------------------------------------------------
D|----12-12-12-12-12-12-12-12-12-12-12-12-12-12-12-12-12-
A|----17-17-17-17-17-17-17-17-17-17-17-17-17-17-17-17-17-
D|----0--0--0--0--0--0--0--0--0--0--0--0--0--0--0--0--0--

and battles have
e|-------------------------------------------------------
B|-------------------------------------------------------
G|-------------------------------------------------------
D|----12-12-12-12-12-12-12-12-12-12-12-12-12-12-12-12-12-
A|----16-16-16-16-16-16-16-16-16-16-16-16-16-16-16-16-16-
D|----0--0--0--0--0--0--0--0--0--0--0--0--0--0--0--0--0--

begun
e|-------------------------------------------------------
B|-------------------------------------------------------
G|-------------------------------------------------------
D|----12-12-12-12-12-12-12-12-12-12-12-12-12-12-12-12-12-
A|----15-15-15-15-15-15-15-15-15-15-15-15-15-15-15-15-15-
D|----0--0--0--0--0--0--0--0--0--0--0--0--0--0--0--0--0--

revenge will surely
e|-------------------------------------------------------
B|-------------------------------------------------------
G|-------------------------------------------------------
D|----12-12-12-12-12-12-12-12-12-12-12-12-12-12-12-12-12-
A|----14-14-14-14-14-14-14-14-14-14-14-14-14-14-14-14-14-
D|----0--0--0--0--0--0--0--0--0--0--0--0--0--0--0--0--0--

come
e|-------------------------------------------------------
B|-------------------------------------------------------
G|-------------------------------------------------------
D|----12-12-12-12-12-12-12-12-12-12-12-12-12-12-12-12-12-
A|----13-13-13-13-13-13-13-13-13-13-13-13-13-13-13-13-13-
D|----0--0--0--0--0--0--0--0--0--0--0--0--0--0--0--0--0--

e|-------------------------------------------------------
B|-------------------------------------------------------
G|-------------------------------------------------------
D|----12-12-12-12-12-12-12-12-12-12-12-12-12-12-12-12-12-
A|----12-12-12-12-12-12-12-12-12-12-12-12-12-12-12-12-12-
D|----0--0--0--0--0--0--0--0--0--0--0--0--0--0--0--0--0--

your hard times are ahead
e|------------------------------------------------------------------
B|------------------------------------------------------------------
G|------------------------------------------------------------------
D|--6-6-6-6-6-6-6-6-6-6-6-6-6-6-6-6-2-2-2-2-2-2-2-2-2-2-2-2-2-2-2-2-
A|--6-6-6-6-6-6-6-6-6-6-6-6-6-6-6-6-2-2-2-2-2-2-2-2-2-2-2-2-2-2-2-2-
D|--6-6-6-6-6-6-6-6-6-6-6-6-6-6-6-6-2-2-2-2-2-2-2-2-2-2-2-2-2-2-2-2-

e|----------------------------------------------------------------------------------
B|----------------------------------------------------------------------------------
G|----------------------------------------------------------------------------------
D|--7-7-7-7-7-7-7-7-7-7-7-7-8-8-8-8-11-11-11-11-11-11-11-11-11-11-11-11-11-11-11-11-
A|--7-7-7-7-7-7-7-7-7-7-7-7-7-7-7-7--7--7--7--7--7--7--7--7--7--7--7--7--7--7--7--7-
D|--7-7-7-7-7-7-7-7-7-7-7-7-7-7-7-7--7--7--7--7--7--7--7--7--7--7--7--7--7--7--7--7-

best, you've got to 
e|-----------------------------------------------------------------
B|-----------------------------------------------------------------
G|---------------------------------7-7-7-7-7-7-7-7-7-7-7-7-7-7-7-7-
D|-8-8-8-8-8-8-8-8-8-8-8-8-8-8-8-8-7-7-7-7-7-7-7-7-7-7-7-7-7-7-7-7-
A|-8-8-8-8-8-8-8-8-8-8-8-8-8-8-8-8-8-8-8-8-8-8-8-8-8-8-8-8-8-8-8-8-
D|-8-8-8-8-8-8-8-8-8-8-8-8-8-8-8-8-0-0-0-0-0-0-0-0-0-0-0-0-0-0-0-0-

be the best, you've got to
e|-----------------------------------------------------------------
B|-----------------------------------------------------------------
G|---------------------------------7-7-7-7-7-7-7-7-7-7-7-7-7-7-7-7-
D|-8-8-8-8-8-8-8-8-8-8-8-8-8-8-8-8-7-7-7-7-7-7-7-7-7-7-7-7-7-7-7-7-
A|-8-8-8-8-8-8-8-8-8-8-8-8-8-8-8-8-8-8-8-8-8-8-8-8-8-8-8-8-8-8-8-8-
D|-8-8-8-8-8-8-8-8-8-8-8-8-8-8-8-8-0-0-0-0-0-0-0-0-0-0-0-0-0-0-0-0-

change the world and use this chance to be heard
e|---------------------------------------------------------------------------------
B|---------------------------------------------------------------------------------
G|---------------------------------------------------------------------------------
D|-8-8-8-8-8-8-8-8-8-8-8-8-8-8-8-8-3-3-3-3-3-3-3-3-7-7-7-7-7-7-7-7-8-8-8-8-8-8-8-8-
A|-8-8-8-8-8-8-8-8-8-8-8-8-8-8-8-8-3-3-3-3-3-3-3-3-4-4-4-4-4-4-4-4-5-5-5-5-5-5-5-5-
D|-8-8-8-8-8-8-8-8-8-8-8-8-8-8-8-8-3-3-3-3-3-3-3-3-4-4-4-4-4-4-4-4-5-5-5-5-5-5-5-5-

your time is
e|-----------------------------------------------------------------
B|-----------------------------------------------------------------
G|-----------------------------------------------------------------
D|-8-8-8-8-8-8-8-8-8-8-8-8-8-8-8-8-3-3-3-3-3-3-3-3-3-3-3-3-3-3-3-3-
A|-8-8-8-8-8-8-8-8-8-8-8-8-8-8-8-8-3-3-3-3-3-3-3-3-3-3-3-3-3-3-3-3-
D|-8-8-8-8-8-8-8-8-8-8-8-8-8-8-8-8-3-3-3-3-3-3-3-3-3-3-3-3-3-3-3-3-

your time is(now)
e|-----------------------------------------------------------------
B|-----------------------------------------------------------------
G|-----------------------------------------------------------------
D|-8-8-8-8-8-8-8-8-8-8-8-8-8-8-8-8-3-3-3-3-3-3-3-3-3-3-3-3-3-3-3-3-
A|-8-8-8-8-8-8-8-8-8-8-8-8-8-8-8-8-3-3-3-3-3-3-3-3-3-3-3-3-3-3-3-3-
D|-8-8-8-8-8-8-8-8-8-8-8-8-8-8-8-8-3-3-3-3-3-3-3-3-3-3-3-3-3-3-3-3-

now
e|-----------------------------------------------------------------
B|-----------------------------------------------------------------
G|-----------------------------------------------------------------
D|-8-8-8-8-8-8-8-8-8-8-8-8-8-8-8-8-8-8-8-8-8-8-8-8-8-8-8-8-8-8-8-8-
A|-7-7-7-7-7-7-7-7-7-7-7-7-7-7-7-7-7-7-7-7-7-7-7-7-7-7-7-7-7-7-7-7-
D|-7-7-7-7-7-7-7-7-7-7-7-7-7-7-7-7-7-7-7-7-7-7-7-7-7-7-7-7-7-7-7-7-

e|--------------------------------------------------------------------------
B|--------------------------------------------------------------------------
G|--------------------------------------------------------------------------
D|---7-x-x-/14-x-x-11-x-x-8-x-x-5-x-8-x-7-x-x-/14-x-x-11-x-x-8-x-x-5-x-11-x-
A|---7-x-x-/14-x-x-11-x-x-8-x-x-5-x-8-x-7-x-x-/14-x-x-11-x-x-8-x-x-5-x-11-x-
D|---7-x-x-/14-x-x-11-x-x-8-x-x-5-x-8-x-7-x-x-/14-x-x-11-x-x-8-x-x-5-x-11-x-

e|-------------------------------------------------------------------
B|-------------------------------------------------------------------
G|-------------------------------------------------------------------
D|-------------------------------------------------------------------
A|-------------------------------------------------------------------
D|-0-0-0-0-0-0-0-0-0-0-0-0-0-0-0-0-0-0-0-0-0-0-0-0-0-0-0-0-0-0-0-0-0-

(strum fast, according to rhythm so the bass note stays constant rate)
e|-------------------------------------------
B|-------------------------------------------
G|-------------------------------------------
D|---19--------12-17--------19------12-17----
A|---17--------10-18--------17------10-18----
D|---0----------0--0--------0--------0--0----

e|---------------------------------------------------------------------------------------------22-
B|-------------------------------------------------------------------19---------19--------22------
G|-20---------17------19------8-/14-----20---17---20---18---------19----19--------19--------------
D|-20---------18------16------7/-13-----19---17---20---18------19-----------19--------19----------
A|-18-----18--15------17------6/-12-----18---15---18---16---17------------------------------------
D|-0-------0---0-------0------0--0-------0---0-----0----0----0------------------------------------

(after piano) don't
e|-------------------------------------------------------
B|-------------------------------------------------------
G|-------------------------------------------------------
D|-------------------------------------------------------
A|----17-17-17-17-17-17-17-17-17-17-17-17-17-17-17-17-17-
D|----0--12-12-0--12-12-0--12-0--12-12-0--12-12-0--12-0--

let yourself
e|-------------------------------------------------------
B|-------------------------------------------------------
G|-------------------------------------------------------
D|-------------------------------------------------------
A|---16--16-16-16-16-16-16-16-16-16-16-16-16-16-16-16-16-
D|----0--12-12-0--12-12-0--12-0--12-12-0--12-12-0--12-0--

down
e|-------------------------------------------------------
B|-------------------------------------------------------
G|-------------------------------------------------------
D|-------------------------------------------------------
A|---15--15-15-15-15-15-15-15-15-15-15-15-15-15-15-15-15-
D|----0--12-12-0--12-12-0--12-0--12-12-0--12-12-0--12-0--

don't let yourself
e|------------------------------------------------------
B|------------------------------------------------------
G|------------------------------------------------------
D|------------------------------------------------------
A|---14-14-14-14-14-14-14-14-14-14-14-14-14-14-14-14-14-
D|----0--12-12-0--12-12-0--12-0--12-12-0--12-12-0--12-0-

go
e|-------------------------------------------------------
B|-------------------------------------------------------
G|-------------------------------------------------------
D|-------------------------------------------------------
A|---13--13-13-13-13-13-13-13-13-13-13-13-13-13-13-13-13-
D|----0--12-12-0--12-12-0--12-0--12-12-0--12-12-0--12-0--

e|-------------------------------------------
B|-------------------------------------------
G|-------------------------------------------
D|-------------------------------------------
A|-------------------------------------------
D|--12-12-12-11-11-11-10-10-10-9-9-9-8-8-7-7-

your last chance has arrived
e|------------------------------------------------------------------
B|------------------------------------------------------------------
G|------------------------------------------------------------------
D|------------------------------------------------------------------
A|------------------------------------------------------------------
D|--6-6-6-6-6-6-6-6-6-6-6-6-6-6-6-6-2-2-2-2-2-2-2-2-2-2-2-2-2-2-2-2-

e|----------------------------------------------------------------------------------
B|----------------------------------------------------------------------------------
G|----------------------------------------------------------------------------------
D|--7-7-7-7-7-7-7-7-7-7-7-7-8-8-8-8-11-11-11-11-11-11-11-11-11-11-11-11-11-11-11-11-
A|--7-7-7-7-7-7-7-7-7-7-7-7-7-7-7-7--7--7--7--7--7--7--7--7--7--7--7--7--7--7--7--7-
D|--7-7-7-7-7-7-7-7-7-7-7-7-7-7-7-7--7--7--7--7--7--7--7--7--7--7--7--7--7--7--7--7-

best, you've got to
e|-----------------------------------------------------------------
B|-----------------------------------------------------------------
G|---------------------------------7-7-7-7-7-7-7-7-7-7-7-7-7-7-7-7-
D|-8-8-8-8-8-8-8-8-8-8-8-8-8-8-8-8-7-7-7-7-7-7-7-7-7-7-7-7-7-7-7-7-
A|-8-8-8-8-8-8-8-8-8-8-8-8-8-8-8-8-8-8-8-8-8-8-8-8-8-8-8-8-8-8-8-8-
D|-8-8-8-8-8-8-8-8-8-8-8-8-8-8-8-8-0-0-0-0-0-0-0-0-0-0-0-0-0-0-0-0-

be the best
e|-----------------------------------------------------------------
B|-----------------------------------------------------------------
G|---------------------------------7-7-7-7-7-7-7-7-7-7-7-7-7-7-7-7-
D|-8-8-8-8-8-8-8-8-8-8-8-8-8-8-8-8-7-7-7-7-7-7-7-7-7-7-7-7-7-7-7-7-
A|-8-8-8-8-8-8-8-8-8-8-8-8-8-8-8-8-8-8-8-8-8-8-8-8-8-8-8-8-8-8-8-8-
D|-8-8-8-8-8-8-8-8-8-8-8-8-8-8-8-8-0-0-0-0-0-0-0-0-0-0-0-0-0-0-0-0-

you've got to change the world and use this chance to be heard
e|---------------------------------------------------------------------------------
B|---------------------------------------------------------------------------------
G|---------------------------------------------------------------------------------
D|-8-8-8-8-8-8-8-8-8-8-8-8-8-8-8-8-3-3-3-3-3-3-3-3-7-7-7-7-7-7-7-7-8-8-8-8-8-8-8-8-
A|-8-8-8-8-8-8-8-8-8-8-8-8-8-8-8-8-3-3-3-3-3-3-3-3-4-4-4-4-4-4-4-4-5-5-5-5-5-5-5-5-
D|-8-8-8-8-8-8-8-8-8-8-8-8-8-8-8-8-3-3-3-3-3-3-3-3-4-4-4-4-4-4-4-4-5-5-5-5-5-5-5-5-

your time is
e|-----------------------------------------------------------------
B|-----------------------------------------------------------------
G|-----------------------------------------------------------------
D|-8-8-8-8-8-8-8-8-8-8-8-8-8-8-8-8-3-3-3-3-3-3-3-3-3-3-3-3-3-3-3-3-
A|-8-8-8-8-8-8-8-8-8-8-8-8-8-8-8-8-3-3-3-3-3-3-3-3-3-3-3-3-3-3-3-3-
D|-8-8-8-8-8-8-8-8-8-8-8-8-8-8-8-8-3-3-3-3-3-3-3-3-3-3-3-3-3-3-3-3-

your time is(now)
e|-----------------------------------------------------------------
B|-----------------------------------------------------------------
G|-----------------------------------------------------------------
D|-8-8-8-8-8-8-8-8-8-8-8-8-8-8-8-8-3-3-3-3-3-3-3-3-3-3-3-3-3-3-3-3-
A|-8-8-8-8-8-8-8-8-8-8-8-8-8-8-8-8-3-3-3-3-3-3-3-3-3-3-3-3-3-3-3-3-
D|-8-8-8-8-8-8-8-8-8-8-8-8-8-8-8-8-3-3-3-3-3-3-3-3-3-3-3-3-3-3-3-3-

now
e|-----------------------------------------------------------------
B|-----------------------------------------------------------------
G|-----------------------------------------------------------------
D|-8-8-8-8-8-8-8-8-8-8-8-8-8-8-8-8-8-8-8-8-8-8-8-8-8-8-8-8-8-8-8-8-
A|-7-7-7-7-7-7-7-7-7-7-7-7-7-7-7-7-7-7-7-7-7-7-7-7-7-7-7-7-7-7-7-7-
D|-7-7-7-7-7-7-7-7-7-7-7-7-7-7-7-7-7-7-7-7-7-7-7-7-7-7-7-7-7-7-7-7-

e|---------------------------------------------------------------------------
B|---------------------------------------------------------------------------
G|---------------------------------------------------------------------------
D|---7-x-x-/14-x-x-11-x-x-8-x-x-5-x-8-x-7-x-x-/14-x-x-11-x-x-8-x-x-5-x-11-12-
A|---7-x-x-/14-x-x-11-x-x-8-x-x-5-x-8-x-7-x-x-/14-x-x-11-x-x-8-x-x-5-x-11-12-
D|---7-x-x-/14-x-x-11-x-x-8-x-x-5-x-8-x-7-x-x-/14-x-x-11-x-x-8-x-x-5-x-11-12-

Glastonbury 2004 Pre-Riffage

e|----------------------------------------------------|
B|----------------------------------------------------|
G|--------10----10-12-10-----------9----9-12-9--------| X 4
D|--12-12----12----------12--11-11---11--------11-----|
A|----------------------------------------------------|
E|----------------------------------------------------|

Wembley 2007 Solo

e|---------------------------------------------------------------------------
B|---------------------------------------------------------------------------
G|---------------------------------------------------------------------------
D|---7-x-x-/14-x-x-11-x-x-8-x-x-5-x-8-x-7-x-x-/14-x-x-11-x-x-8-x-x-5-x-8x----
A|---7-x-x-/14-x-x-11-x-x-8-x-x-5-x-8-x-7-x-x-/14-x-x-11-x-x-8-x-x-5-x-8x----
D|---7-x-x-/14-x-x-11-x-x-8-x-x-5-x-8-x-7-x-x-/14-x-x-11-x-x-8-x-x-5-x-8x----

e|---------------------------------------------------------------------------
B|---------------------------------------------------------------------------
G|---------------------------------------------------------------------------
D|---8-x-x-/15-x-x-12-x-x-8-x-x-5-x-8-x-8-x-x-/15-x-x-12-x-x-8-x-x-5-x-8x----
A|---8-x-x-/15-x-x-12-x-x-8-x-x-5-x-8-x-8-x-x-/15-x-x-12-x-x-8-x-x-5-x-8x----
D|---8-x-x-/15-x-x-12-x-x-8-x-x-5-x-8-x-8-x-x-/15-x-x-12-x-x-8-x-x-5-x-8x----

e|---------------------------------------------------------------------------
B|---------------------------------------------------------------------------
G|----------------------6h9-------------------------6h9----------------------
D|-------------5-5h8h5h8-------------------5-5h8h5h8-------------------------
A|------4h7h4h7-7-------------------4h7h4h7-7--------------------------------
E|---7---------------------------7-------------------------------------------

e|---------------------------------------------------------------------------
B|---------------------------------------------------------------------------
G|----------------------7h10-----------------------7h10----------------------
D|-------------6-6h9h6h9------------------6-6h9h6h9--------------------------
A|------5h8h5h8-8------------------5h8h5h8-8---------------------------------
E|---8--------------------------8--------------------------------------------

e|---------------------------------------------------------------------------
B|---5---5---5---5---5---6666----5---5---5---5---5---------------------------
G|---7b9-7b9-7b9-7b9-7b9---------7b9-7b9-7b9-7b9-7b9-------------------------
D|---------------------------------------------------------------------------
A|---------------------------------------------------------------------------
E|---------------------------------------------------------------------------

e|---------------------------------------------------------------------------
B|---6----6----6----6----6----8888----6----6----6----6----6---8888-----------
G|---8b10-8b10-8b10-8b10-8b10---------8b10-8b10-8b10-8b10-8b10---------------
D|---------------------------------------------------------------------------
A|---------------------------------------------------------------------------
E|---------------------------------------------------------------------------

e|--------------------------------131313------------------------------131313-
B|---10----10----10----10----10----------10----10----10----10----10----------
G|---12b14-12b14-12b14-12b14-12b14-------12b14-12b14-12b14-12b14-12b14-------
D|---------------------------------------------------------------------------
A|---------------------------------------------------------------------------
E|---------------------------------------------------------------------------

e|---------------------------------------------------------------------------
B|---11----11----11----11----11----------------------------------------------
G|---13b15-13b15-13b15-13b15-13b15-------------------------------------------
D|---------------------------------------------------------------------------
A|---------------------------------------1--1--1-3--3--4-5(hold)-------------
E|---------------------------------------------------------------------------


Go back to tablature