Ashamed (tablature)

MuseWiki, wiki for the band Muse
Jump to: navigation, search
Muse Tab
Name Ashamed
Length 03:47
Tuning Standard
Tempo 123bpm
Timing 4/4

Guitar

   Key:
/: Slide Up
\: Slide Down
B: Bend Full
b: Bend 1/2
r: Release
h: Hammer On
p: Pull Off
v: Vibrato

   Intro
   Gtr. 1(W/dist, pick efx. and Fdbck.)
e|-X-X-X-X-X-X-X-X-X-X-X-X-X-X-X-X-X-X-X-X-X-X-X-X-X-X-X-X-X-X-----||   e|-12121212-||    |-----||
B|-X-X-X-X-X-X-X-X-X-X-X-X-X-X-X-X-X-X-X-X-X-X-X-X-X-X-X-X-X-X-----||   B|-12121212-||    |-----||
G|-X-X-X-X-X-X-X-X-X-X-X-X-X-X-X-X-X-X-X-X-X-X-X-X-X-X-X-X-X-X-----||   G|----------||X 7 |-----||
D|-----------------------------------------------------------------||   D|----------||    |-----||
A|-----------------------------------------------------------------||   A|----------||    |-----||
E|-------------------------------------------------------------12\-||   E|----------||    |-12\-||

  Gtr. 1
e|-----2---------2---|----2---------2---|-----5---------5---|----5---------5---|*\
B|-----2---------2---|----2---------2---|-----5---------5---|----5---------5---|* N. H.
G|-----2---------2---|----2---------2---|-----5---------5---|----5---------5---|*/
D|-------------------|------------------|-------------------|------------------|
A|--------2--2h3-----|-------2--2h3-----|--------2--2h3-----|-------2--2h3-----|
E|-2-----------------|-2----------------|-2-----------------|-2----------------|

e|-----2---------2---|----2---------2---|-----2---------2---|----2---------2---|*\
B|-----2---------2---|----2---------2---|-----2---------2---|----2---------2---|* Gtr. 2 N.H.
G|-----2---------2---|----2---------2---|-----2---------2---|----2---------2---|*/
D|-------------------|------------------|-------------------|------------------|
A|-----0--2--2h3-2-0-|----0--2--2h3-2-0-|-----0--2--2h3-2-0-|----0--2--2h3-2-0-|+ Gtr. 1
E|-2-----------------|-2----------------|-2-----------------|-2----------------|+

e|-----5---------5---|----5---------5---|-----5---------5---|----5---------5---|*\
B|-----5---------5---|----5---------5---|-----5---------5---|----5---------5---|* Gtr. 2 N.H.
G|-----5---------5---|----5---------5---|-----5---------5---|----5---------5---|*/
D|-------------------|------------------|-------------------|------------------|
A|-----0--2--2h3-2-0-|----0--2--2h3-2-0-|-----0--2--2h3-2-0-|----0--2--2h3-2-0-|+ Gtr. 1
E|-2-----------------|-2----------------|-2-----------------|-2----------------|+

  Gtr. 2 Tacet
  Gtr. 1 (Long Slide)
e|----------------||
B|----------------||
G|----------------||
D|-4-////16-------||
A|-4-////16-------||
E|-2-////14-------||

  Pre-verse 1

  Gtr. 1 (W/Trem. Effect and slight dist.)
e|-----------------|-----------------|-----------------|-----------------|
B|-----------------|-----------------|-----------------|-----------------|
G|-----------------|-----------------|-----------------|-----------------|
D|-----------------|-----------------|-----------------|-----------------|
A|-0---------------|-0-----------0-2-|-3-------------0-|-2----0------0---|
E|-----------------|-----------------|-----------------|-----------------|

e|-----------------|-----------------|-----------------|-----------------|
B|-----------------|-----------------|-----------------|-----------------|
G|-----------------|-----------------|-----------------|-----------------|
D|-------------2---|-4---------------|-----------------|-----------------|
A|-0---0---3-------|-------------0-2-|-3---------------|-2----0----------|
E|-----------------|-----------------|-----------------|-----------------|

  Verse 1
                                     |Trem. off and increase dist........|
e|-----------------|-----------------|-----------------|-----------------|
B|°----------------|-----------------|-----------------|----------------°|
G|-----------------|-----------------|-5-555-555-555-55|-5-555-555-555-55|
D|-----------------|-----------------|-----------------|-----------------|
A|°0---------------|-0---------------|-----------------|----------------°|
E|-----------------|-----------------|-----------------|-----------------|
 
  Prechorus 1

  Trem. off and more dist.
e|-----------------|-----------------|-----------------|-----------------|
B|-----------------|-----------------|-----------------|-----------------|
G|-6-666-666-666-66|-8-888-888-888-88|-9-999-999-999-99|-8-888-888-888-88|
D|-----------------|-----------------|-----------------|-----------------|
A|-----------------|-----------------|-----------------|-----------------|
E|-----------------|-----------------|-----------------|-----------------|

e|-----------------|-----------------|-----------------|-----------------|
B|-----------------|-----------------|-----------------|-----------------|
G|-6-666-666-666-66|-8-888-888-888-88|-9-999-999-999-99|-6--6--4---------|
D|-----------------|-----------------|-----------------|-----------------|
A|-----------------|-----------------|-----------------|-----------------|
E|-----------------|-----------------|-----------------|-----------------|

  Chorus 1

e|-----9999999999----|Gtr. 3 (dist)

e|-----2---------2---|----2---------2---|-----2---------2---|----2---------2---|*\
B|-----2---------2---|----2---------2---|-----2---------2---|----2---------2---|* Gtr. 2 N.H.
G|-----2---------2---|----2---------2---|-----2---------2---|----2---------2---|*/
D|-------------------|------------------|-------------------|------------------|
A|-----0--2--2h3-2-0-|----0--2--2h3-2-0-|-----0--2--2h3-2-0-|----0--2--2h3-2-0-|+ Gtr. 1
E|-2-----------------|-2----------------|-2-----------------|-2----------------|+

e|-----9999999999----|Gtr. 3

e|-----5---------5---|----5---------5---|-----5---------5---|----5---------5---|*\
B|-----5---------5---|----5---------5---|-----5---------5---|----5---------5---|* Gtr. 2 N.H.
G|-----5---------5---|----5---------5---|-----5---------5---|----5---------5---|*/
D|-------------------|------------------|-------------------|------------------|
A|-----0--2--2h3-2-0-|----0--2--2h3-2-0-|-----0--2--2h3-2-0-|----0--2--2h3-2-0-|+ Gtr. 1
E|-2-----------------|-2----------------|-2-----------------|-2----------------|+

  Gtr. 2 Tacet.
  Gtr. 3 Tacet.
  Gtr. 1 (Long Slide)
e|----------------||
B|----------------||
G|----------------||
D|-4-////16B------||
A|-4-////16B------||
E|-2-////14B------||

  Verse 2

  W/Trem. effect and slight dist.    |Trem. off and increase dist........|
e|-----------------|-----------------|-----------------|-----------------|
B|°----------------|-----------------|-----------------|----------------°|
G|-2---------------|-2---------------|-5-555-555-555-55|-5-555-555-555-55|
D|-----------------|-----------------|-----------------|-----------------|
A|°----------------|-----------------|-----------------|----------------°|
E|-----------------|-----------------|-----------------|-----------------|

  Prechorus 2

  Trem. off and more dist.
e|-----------------|-----------------|-----------------|-----------------|
B|-----------------|-----------------|-----------------|-----------------|
G|-6-666-666-666-66|-8-888-888-888-88|-9-999-999-999-99|-8-888-888-888-88|
D|-----------------|-----------------|-----------------|-----------------|
A|-----------------|-----------------|-----------------|-----------------|
E|-----------------|-----------------|-----------------|-----------------|

e|-----------------|-----------------|-----------------|-----------------|
B|-----------------|-----------------|-----------------|-----------------|
G|-6-666-666-666-66|-8-888-888-888-88|-9-999-999-999-99|-6--6--4---------|
D|-----------------|-----------------|-----------------|-----------------|
A|-----------------|-----------------|-----------------|-----------------|
E|-----------------|-----------------|-----------------|-----------------|

  Chorus 2

e|-----9999999999----|Gtr. 3 (dist)

e|-----2---------2---|----2---------2---|-----2---------2---|----2---------2---|*\
B|-----2---------2---|----2---------2---|-----2---------2---|----2---------2---|* Gtr. 2 N.H.
G|-----2---------2---|----2---------2---|-----2---------2---|----2---------2---|*/
D|-------------------|------------------|-------------------|------------------|
A|-----0--2--2h3-2-0-|----0--2--2h3-2-0-|-----0--2--2h3-2-0-|----0--2--2h3-2-0-|+ Gtr. 1
E|-2-----------------|-2----------------|-2-----------------|-2----------------|+

e|-----9999999999----|Gtr. 3

e|-----5---------5---|----5---------5---|-----5---------5---|----5---------5---|*\
B|-----5---------5---|----5---------5---|-----5---------5---|----5---------5---|* Gtr. 2 N.H.
G|-----5---------5---|----5---------5---|-----5---------5---|----5---------5---|*/
D|-------------------|------------------|-------------------|------------------|
A|-----0--2--2h3-2-0-|----0--2--2h3-2-0-|-----0--2--2h3-2-0-|----0--2--2h3-2-0-|+ Gtr. 1
E|-2-----------------|-2----------------|-2-----------------|-2----------------|+

   Bridge
   Gtr. 3 Tacet
   Gtr. 1
e|-17----17------17------19------20------20------21------21-------|
B|-----18----18------18------18------18------18-------------------|
G|---19----19--19--19--19--19--19--19--19--19--19--191919--191919-|
D|----------------------------------------------------------------|
A|----------------------------------------------------------------|
E|----------------------------------------------------------------|
 | Gtr. 2
e|----------------------------------------------------------------|
B|----------------------------------------------------------------|
G|----------------------------------------------------------------|
D|-4\-----------4\--------------4\--------------4\-/--------------|
A|-4\-----------4\--------------4\--------------4\-/--------------|
E|-2\-----------2\--------------2\--------------2\-/--------------|

   Gtr. 1                                       Gtr. 1
e|----------------------------------|        e|-21212121212121212121212121212121-|
B|----------------------------------|        B|----------------------------------|
G|-19191919191919191919191919191919-|        G|----------------------------------|
D|----------------------------------|        D|----------------------------------|
A|----------------------------------|        A|----------------------------------|
E|----------------------------------|\       E|----------------------------------|
 |Gtr. 2                              X 2     |Gtr. 2
e|----------------------------------|/       e|----------------------------------|
B|----------------------------------|        B|----------------------------------|
G|----------------------------------|        G|----------------------------------|
D|-4\-------------------------------|        D|-4\-------------------------------|
A|-4\-------------------------------|        A|-4\-------------------------------|
E|-2\-------------------------------|        E|-2\-------------------------------|

  Solo
  Gtr. 1.....Riff 1|
e|-----------------|
B|-----------------|
G|-----------------|           Gtr. 1 w/Riff 1 X 8
D|-----------------|           Gtr. 2
A|---------2-------|        e|----------------|
E|-2-0-1-2---0-1-2-|        B|-14141414141414-|
 | Gtr. 2                   G|----------------|
e|-----------------|        D|----------------|X 8
B|-----------------|        A|----------------|
G|-----------------|        E|----------------|
D|-4---------------|
A|-4---------------|
E|-2---------------|

  Gtr. 1 w/ Riff 1
  Gtr. 2
e|------------------|------------------|------------------|------------------|
B|°-----------------|------------------|------------------|-----------------°|
G|-16XX16XX16XX16XX-|-17XX17XX17XX17XX-|-18XX18XX18XX18XX-|-18XX18XX18XX18XX-|
D|------------------|------------------|------------------|------------------|
A|°-----------------|------------------|------------------|-----------------°|
E|------------------|------------------|------------------|------------------|

  Gtr. 1 w/ Riff 1
  Gtr. 2
e|-19XX19XX19XX19XX-|-20XX20XX20XX20XX-|-21XX21XX21XX21XX-|-21XX21XX21XX21XX-|
B|°-----------------|------------------|------------------|-----------------°|
G|-16XX16XX16XX16XX-|-17XX17XX17XX17XX-|-18XX18XX18XX18XX-|-18XX18XX18XX18XX-|
D|------------------|------------------|------------------|------------------|
A|°-----------------|------------------|------------------|-----------------°|
E|------------------|------------------|------------------|------------------|

  Outro
  Gtr. 1 w/ Riff 1
  Gtr. 2
e|-19XX19XX19XX19XX-|-20XX20XX20XX20XX-|-21XX21XX21XX21XX-|-21XX21XX21-------|
B|°-----------------|------------------|------------------|-----------------°|
G|-16XX16XX16XX16XX-|-17XX17XX17XX17XX-|-18XX18XX18XX18XX-|-18XX18XX18-------|
D|------------------|------------------|------------------|------------------|
A|°-----------------|------------------|------------------|-----------------°|
E|------------------|------------------|------------------|------------------|
                                                          Gtr. 1
                                                         e|------------------|
                                                         B|------------------|
                                                         G|------------------|
                                                         D|------------------|
                                                         A|---------2--------|
                                                         E|-2-0-1-2---2\-----|

Bass

Intro
G---||------------------------------------------||
D---||------------------------------------------||
A---||------------------------------------------||
E---||12~/7-------------------------------------||

G---||------------------------------------------||
D---||------------------------------------------||   Low volume on bass during intro.
A---||---------§----------§--------§---------§--||   §=mute (right after strumming)
E---||7/2--7-7-8--2--7-7-8--2--7-7-8--2--7-7-8--||


Pre-chorus
G---||------------------------------------------||
D---||------------------------------------------||   4x
A---||------0--2--2-3--2-0-----0--2--2-3--2-0---||
E---||---2-----------------2--------------------||

Chorus
G---||-------------------------------------------------------------------------------------||
D---||*------------------------------------------------------------------------------------||   3x
A---||*-§--§------------------§--§------------------§--§---------------------0--2--2-3-2-0-||
E---||--2--2--0-2-2--0-2-0-1--2--2--0-2-2--0-2-0-1--2--2--0-2-2--0-2-0-1--2----------------||
                                                                   Bridge
G---||-----------------------------------------------------------------------------------||
D---||*----------------------------------------------------------------------------------||  2x
A---||*--§--§------------------§--§----------------------0-0-2-233220------0-0-2-233220--||
E---||---2--2--0-2-2--0-2-0-1--2--2--0-2-2--0-2-0-1--2-2---------------2-2---------------||

Verse
G---||------------------------------------------------------------------------||
D---||-------------224---------------224---------------224-----------4-4------||   (This last part is very hard
A---||----0-0-2-233---------0-0-2-233---------0-0-2-233---------0-23--3-20----||   both to tab and play!)
E---||2-2---------------2-2---------------2-2---------------2-2-----------2---||

G---||------------------------------------------------------------------------||
D---||-------------224---------------224---------------224-----4--------------||
A---||----0-0-2-233---------0-0-2-233---------0-0-2-233-----------4~----------||
E---||2-2---------------2-2---------------2-2---------------2-----------------||

Pre-chorus
G---||------------------------------------------||
D---||------------------------------------------||   4x
A---||------0--2--2-3--2-0-----0--2--2-3--2-0---||
E---||---2-----------------2--------------------||

Chorus
G---||-------------------------------------------------------------------------------------||
D---||*------------------------------------------------------------------------------------||
A---||*-§--§------------------§--§------------------§--§---------------------0--2--2-3-2-0-||
E---||--2--2--0-2-2--0-2-0-1--2--2--0-2-2--0-2-0-1--2--2--0-2-2--0-2-0-1--2----------------||

                                                                   Bridge
G---||-----------------------------------------------------------------------------------||
D---||*----------------------------------------------------------------------------------||  2x
A---||*--§--§------------------§--§----------------------0-0-2-233220------0-0-2-233220--||
E---||---2--2--0-2-2--0-2-0-1--2--2--0-2-2--0-2-0-1--2-2---------------2-2---------------||

Verse
G---||------------------------------------------------------------------------||
D---||-------------224---------------224---------------224-----------4-4------||
A---||----0-0-2-233---------0-0-2-233---------0-0-2-233---------0-23--3-20----||
E---||2-2---------------2-2---------------2-2---------------2-2-----------2---||

G---||------------------------------------------------------------------------||
D---||-------------224---------------224---------------224-----4--------------||
A---||----0-0-2-233---------0-0-2-233---------0-0-2-233-----------4~----------||
E---||2-2---------------2-2---------------2-2---------------2-----------------||

Pre-chorus
G---||------------------------------------------||
D---||------------------------------------------||   4x
A---||------0--2--2-3--2-0-----0--2--2-3--2-0---||
E---||---2-----------------2--------------------||

Outro
G---||------------------------------------------------------------||
D---||------------------------------------------------------------||
A---||------------------------------------------------------------||
E---||\14/2----14/2----14/2----14//2\\14/2----14/2----14/2---14/2-||

G---||-------------------------------||        ||---------------------------------||
D---||-------------------------------||   4x   ||---------------------------------||   7x
A---||---------2---------------2-----||   ->   ||---------0---------------0-------||
E---||-2-0-1-2---2-0-1-2-0-1-2---2-1-||        ||-2-0-1-2---2-0-1-2-0-1-2---2-0-1-||

G---||------------------------------||
D---||------------------------------||
A---||---------0---------------2----||
E---||-2-0-1-2---2-0-1-2-0-1-2---1--||


Go back to tablature