Apocalypse Please (tablature)

MuseWiki, wiki for the band Muse
Jump to: navigation, search

GUITAR TAB

Muse Tab
Name Apocalypse Please
Length 04:12
Tuning Standard (guitar) / Drop-D (bass)
Tempo Not fixed, assume 79bpm
Timing 4/4

Guitar:
F#m/C# C#
--2---------------|
--2--------6------|
--2--------6------|
--4--------6------| (x4)
--4--------4------|
------------------|


F#m D/F# E/B C#aug A
-------------------|--------------------|
------2---2---2----|-------3---3---3----|
----2--2-2-2-2-2-2-|-----2--2-2-2-2-2-2-|
---4-4--4---4---4--|----0-0--0---0---0--|
-------------------|--------------------|
--2----------------|--2-----------------|

----------------------|--------------------|
------0----------1----|------2---2---2-----|
----1--1-1-----1--1-1-|----2--2-2-2-2-2-2--|
---2-2--2-----2-2--2--|---2-2--2---2---2---|
--2----------3--------|--0-----------------|
----------------------|--------------------|

C# A C#
-------5----|---------|
--6----5----|---6~~---|
--6----6----|---6~~---|
--6----7----|---6~~---|
--4----7----|---4~~---|
-------5----|---------|

F#m C#
--9----9----9----9------|--9---9---9---9-----|
---10---10---10---10----|---9---9---9---9----|
-----11---11---11---11--|----10--10--10--10--|
------------------------|--------------------|
------------------------|--------------------|
------------------------|--------------------|

F#m D C#sus4 C#
-9----9----9----9-----|-10----10----10----10-----|
--10---10---10---10---|---10----10----10----10---|
----11---11---11---11-|-----11----11----11----11-|
----------------------|--------------------------|
----------------------|--------------------------|
----------------------|--------------------------|

-9---9---9---9----|-9---9---9---9---R
--9---9---9---9---|--9---9---9---9--E
--11--11--11--11--|--10--10--10--10-P x3
------------------|-----------------E
------------------|-----------------A
------------------|-----------------T

F#m D Bm C7dim C#
-9----9----9----9------|10---10---10--10------|
--10---10---10---10----|--10---10---10--10----|
----11---11---11---11--|----11---11---11--11--|
-----------------------|----------------------|
-----------------------|----------------------|
-----------------------|----------------------|

-7--7--7--7----|-8--8--8--8----|-----------|
--7--7--7--7---|--7--7--7--7---|-6-6-6-6---|
---7--7--7--7--|---8--8--8--8--|-6-6-6-6---|
---------------|---------------|-6-6-6-6---|
---------------|---------------|-4-4-4-4---|
---------------|---------------|-----------|

C# F#m D Bm C# F#m
--------2--4--2--|--2--4--2--|--2--2--2--|-----------|--2~~---|
--6-6---2--2--2--|--3--3--3--|--3--3--3--|--6--6--6--|--2~~---|
--6-6---2--2--2--|--2--2--2--|--4--4--4--|--6--6--6--|--2~~---|
--6-6---4--4--4--|--0--0--0--|--4--4--4--|--6--6--6--|--4~~---|
--4-4------------|-----------|--2--2--2--|--4--4--4--|--4~~---|
-----------------|-----------|-----------|-----------|--2~~---|

BASS TAB

~7 whole breaks~

Declare this an emergency
Come on an thread a sense of urgency

Pre-chorus:                      And pull us through (...)
                                |
G--------------------------------------|
D--------------------------------------|
A--------------------------------------|
D-------------------------------16^16\-|

G------------------------------------------------|
D------------------------------------------------|   2x
A------------------------------------------------|   (Tempo: 8/8)
D-4-4-4-4-4-4-4-4/-11-11-11-11-11-11-11-11-------|

Chorus:

And this is the end (...)
G------------------------------------------------|
D------------------------------------------------| Twice the tempo here! (16/16)
A------------------------------------------------|
D-4-4-4-4-4-4-4-4-4-4-4-4-4-4-4-4-4-4------------|

G------------------------------------------------|
D------------------------------------------------|
A------------------------------------------------|
D-4-4-4-4-4-4-4-4-4-4-4-4-4-4-4-4-4-4------------|

G------------------------------------------------|
D------------------------------------------------|
A------------------------------------------------|
D-6-6-6-6-6-6-6-6-6-6-6-6-6-6-6-6-6-6------------|

G------------------------------------------------|
D------------------------------------------------|
A------------------------------------------------|
D-7-7-7-7-7-7-7-7-7-7-7-7-7-7-7-7-7-7------------|

G------------------------------------------------|
D------------------------------------------------|
A------------------------------------------------|
D-11-11-11-11-11-11-11-11-11-11-11-11-11-11-11-11|

G------------------------------------------------|
D------------------------------------------------|
A------------------------------------------------|
D-7-7-7-7-7-7-7-7-7-7-7-7-7-7-7-7-7-7------------|

G------------------------------------------------|
D------------------------------------------------|
A------------------------------------------------|
D-11-11-11-11-11-11-11-11-11-11-11-11-11-11-11-11|

G------------------------------------------------|
D------------------------------------------------|
A------------------------------------------------|
D-11-11-11-11-11-11-11-11-11-11-11-11-11-11-11-11|

~3 whole breaks~

And it's time we saw a miracle
Come on it's time for something biblical
To pull us through (...)

~PRE-CHORUS~

~CHORUS~

Verse:

G-----6-6-----6-6-----6-6-----6-6-|
D---------------------------------|
A-4-4-----4-4-----4-4-----4-4-----|
D---------------------------------|

G-----6-6-----6-6-----6-6-----6-6-|
D---------------------------------|
A-4-4-----4-4-----4-4-----4-4-----|
D---------------------------------|

G----11-11---11-11---11-11---11-11-|
D----------------------------------|
A-9-9-----9-9-----9-9-----9-9------|
D----------------------------------|

G-----7-7-----7-7-----7-7-----7-7-|
D---------------------------------|
A-5-5-----5-5-----5-5-----5-5-----|
D---------------------------------|

G-----6-6-----6-6-----6-6-----6-6-|
D---------------------------------|
A-4-4-----4-4-----4-4-----4-4-----|
D---------------------------------|

G-----6-6-----6-6-----6-6-----6-6-|
D---------------------------------|
A-4-4-----4-4-----4-4-----4-4-----|
D---------------------------------|

G----11-11---11-11---11-11---11-11-|
D----------------------------------|
A-9-9-----9-9-----9-9-----9-9------|
D----------------------------------|

G-----7-7-----7-7-----7-7-----7-7-|
D---------------------------------|
A-5-5-----5-5-----5-5-----5-5-----|
D---------------------------------|

G-----4-4-----4-4-----4-4-----4-4-|
D---------------------------------|
A-2-2-----2-2-----2-2-----2-2-----|
D---------------------------------|

G-----5-5-----5-5-----5-5-----5-5-|
D---------------------------------|
A-3-3-----3-3-----3-3-----3-3-----|
D---------------------------------|

G---------------------------------|
D---------------------------------|
A-4~~~----------------------------|
D---------------------------------|

~4 whole breaks~

Proclaim eternal victory
Come on and change the course of history
And pull us through (...)

~PRE-CHORUS~

~CHORUS~

~VERSE~

(The last "4" note from the verse is the same note as the first "4" note in the beginning of the outro here)

Outro:

G--------------------------------|
D--------------------------------|
A-4~-------------4~--------------|
D--------------------------------|

G--------------------------------|
D--------------------------------|
A-4~-----------------------------|
D-----------------4~-------------|

G--------------------------------|
D--------------------------------|
A-5~---------------2~------------|
D--------------------------------|

G--------------------------------|
D--------------------------------|
A-4~-----------------------------|
D-----------------4~~~-----------|


Go back to tablature