Propaganda (tablature)

MuseWiki, wiki for the band Muse
Jump to: navigation, search
Intro (no guitar)



Verse 1 - 0:14

e|---------------|------------------------------|---------------|-------------------|
B|---------------|------------------------------|---------------|-------------------|
G|-----7b--7-----|-----5--7--7/10--7--7--5--7~--|--5--7/10----|--9b10r9--9--7--7-----|
D|---------------|--7---------------------------|----------10----|------------------|
A|---------------|------------------------------|---------------|-------------------|
E|---------------|------------------------------|---------------|-------------------|
                                                                   
e|---------------|------------------------------|---------------|-------------------------------|
B|---------------|------------------------------|---------------|-------------------------------|
G|--5--7~--7\----|-----5--7--7/10--7--7--5--7~--|--5--7/10----|--9b10r9---9-----7-----7----5----|
D|---------------|--7---------------------------|-----------10----|-----------------------------|
A|---------------|------------------------------|---------------|-------------------------------|
E|---------------|------------------------------|---------------|-------------------------------|


Chorus
    
e|---------------|-----------------------------------------|
B|---------------|-----------------------------------------|
G|---7~-----7~---|-------5--7--10r9---9--7--9~----9--9~----|
D|---------------|--7--------------------------------------|
A|---------------|-----------------------------------------|
E|---------------|-----------------------------------------|

 You   keep  telling  pretty  lies   You  toy  with the truth
e|------------------------------------|---------------------------|
B|--8b10r8---8----8--6-----8--6-/10-|---10---10----8---6--5-------|
G|------------------------------------|-----------------------9\--|
D|------------------------------------|---------------------------|
A|------------------------------------|---------------------------|
E|------------------------------------|---------------------------|

Verse 2: repeat verse 1


Chorus

 Can't  lose    you make me offers that I can't refuse
e|---------------|-----------------------------------------|
B|---------------|-----------------------------------------|
G|---7~-----7~---|-------5--7--10r9---9--7--9~----9--9~----|
D|---------------|--7--------------------------------------|
A|---------------|-----------------------------------------|
E|---------------|-----------------------------------------|

 You   keep  telling  pretty  lies   You  toy  with the truth
e|------------------------------------|---------------------------|
B|--8b10r8---8----8--6-----8--6-/10-|---10---10----8---6--5-------|
G|------------------------------------|-----------------------9\--|
D|------------------------------------|---------------------------|
A|------------------------------------|---------------------------|
E|------------------------------------|---------------------------|

Solo


e|---------------------|--------------------|
B|---------------------|---------8--8\6-----|
G|-------5--5/7--7---5-|---5-7----------7---|
D|--7--------------7---|-7------------------|
A|---------------------|--------------------|
E|---------------------|--------------------|

e|---------------------|--------------------|
B|---------------------|-----6---8--8\6-----|
G|--7--7----5--5/7--7--|--7--------------7--|
D|---------------------|--------------------|
A|---------------------|--------------------|
E|---------------------|--------------------|

e|--------------------------|--------------------|
B|--6/10---8--8/10---10-----|--6--6---8--8\6-----|
G|--------------------------|-----------------7--|
D|--------------------------|--------------------|
A|--------------------------|--------------------|
E|--------------------------|--------------------|

e|--5/10--10--8--8/10---10--|--------------------|
B|--------------------------|--6--6---8--8\6-----|
G|--------------------------|-----------------7--|
D|--------------------------|--------------------|
A|--------------------------|--------------------|
E|--------------------------|--------------------|

Final Chorus


Can't  lose    you make me offers that I can't refuse
e|---------------|-----------------------------------------|
B|---------------|-----------------------------------------|
G|---7~-----7~---|-------5--7--10r9---9--7--9~----9--9~----|
D|---------------|--7--------------------------------------|
A|---------------|-----------------------------------------|
E|---------------|-----------------------------------------|

 You   keep  telling  pretty  lies     Babe don't you know you can't lose 
e|------------------------------------|
B|--8b10r8---8----8--6-----8--6-/--10-|x2
G|------------------------------------|
D|------------------------------------|
A|------------------------------------|   
E|------------------------------------|   


you make me offers that I can't refuse
e|-----------------------------------------|
B|-----------------------------------------|
G|-------5--7--10r9---9--7--9~----9--9~----|
D|-----7-----------------------------------| 
A|-----------------------------------------|
E|-----------------------------------------|

  You   keep  telling  pretty  lies   You  toy  with the truth
e|------------------------------------|---------------------------|
B|--8b10r8---8----8--6-----8--6-/--10-|---10---10----8---6--------|
G|------------------------------------|-----------------------9\--|
D|------------------------------------|---------------------------|
A|------------------------------------|---------------------------|
E|------------------------------------|---------------------------|

| ~ - vibrato
| \ - slide down
| / - slide up
| b - bend
| r - release