JFK (tablture)

MuseWiki, wiki for the band Muse
Jump to: navigation, search

Guitar tab

Tabbed by GiveMeThePiss

Tuning : Drop D

It's not very important to tab it, but still I'll
do it for fun. You'll need to effects on a Whammy
pedal, to play this song correctly : if you have
the Whammy pedal, use the Whammy effects, not the
Harmony effects, and play first with the -1oct..
Start when John Fitzgerald Kennedy says "(...)
instead of invasion" :
e|-----------------------------|
b|-----------------------------|
g|-----------------------------|
D|-----------------------------|
A|-----------------------------|
D|-0-0-----0-0-----0-0-----0-0-|

Stay with the same Whammy effect for this part. It's
when the violons come :
e|-----------------------------|
b|-----------------------------|
g|-----------------------------| x2
D|-----------------------------|
A|-----------------------------|
D|-0-0-----0-0-----4-4-----2-2-|

By the way, if you want to play the violons part,
like Matt did a few times before Uprising I think,
you just have to play this with the Whammy +1oct.
effect :

e|-----------------------------------------------------------------------------|
b|-----------------------------------------12~->-13~-----------12~->-11~->-10~-|
g|-11~->-14~->-12~->-11~->-14~->-12~->-11~-----------11~->-12~-----------------| x2
D|-----------------------------------------------------------------------------|
A|-----------------------------------------------------------------------------|
D|-----------------------------------------------------------------------------|

Song structure :
Speech beginning (No guitar)
"Instead of" part (Guitar enters)
Violons part

Signs :
~ : vibrato
-> : slide


Go back to tablature