Get Up And Fight (tablature)

MuseWiki, wiki for the band Muse
Jump to: navigation, search

Guitar tab

Tabbed by GiveMeThePiss

Tuning : Standard

A Mercy/Starlight-like track, probably the worst
track from their last album... The guitar is very
simple to play on this one.

First of all, there is no guitar in the intro and
the verses : Only in the chorus and the bridge.

The chorus is :
e|-x-x-x-x------------------------------------------------------------------------------------------------------------|
b|-x-x-x-x------------------------------------------------------------------------------------------------------------|
g|-x-x-x-x-9-9-9-9--9-9-9-------------6-6-6-6--6-6-6--4-4--4--4--2-2-2-2--2-2-2--4-4--4--4----------------------------|
D|-x-x-x-x-9-9-9-9--9-9-9--6-6--6--6--6-6-6-6--6-6-6--4-4--4--4--2-2-2-2--2-2-2--4-4--4--4--4-4-4-4--4-4-4--7-7--7--7-|
A|-x-x-x-x-7-7-7-7--7-7-7--6-6--6--6--4-4-4-4--4-4-4--2-2--2--2--0-0-0-2--0-0-0--2-2--2--2--4-4-4-4--4-4-4--7-7--7--7-|
E|-x-x-x-x-----------------4-4--4--4--------------------------------------------------------2-2-2-2--2-2-2--5-5--5--5-|
  (-------)
Quoted part : you play it when the drums goes like
              boom, just before Matt starts to sing
              the chorus.

e|------------------------------------------------------------------------------------------------------------|
b|------------------------------------------------------------------------------------------------------------|
g|-9-9-9-9--9-9-9--8-8--8--8--6-6-6-6--6-6-6--4-4--4--4--2-2-2-2--2-2-2--4-4--4--4----------------------------|
D|-9-9-9-9--9-9-9--9-9--9--9--6-6-6-6--6-6-6--4-4--4--4--2-2-2-2--2-2-2--4-4--4--4--4-4-4-4--4-4-4--7-7--7--7-|
A|-7-7-7-7--7-7-7--6-6--6--6--4-4-4-4--4-4-4--2-2--2--2--0-0-0-2--0-0-0--2-2--2--2--4-4-4-4--4-4-4--7-7--7--7-|
E|----------------------------------------------------------------------------------2-2-2-2--2-2-2--5-5--5--5-|

And you end each chorus on this chord :
e|---|
b|---|
g|-9-|
D|-9-|
A|-7-|
E|---|

For the bridge, you just have to play this (I think) :
e|----------------*12-----------*12-*12-----------------*12-*12-------------|
b|-x-x-x-----\--\-----------------------------------------------------------|
g|-x-x-x-----\--\-----------------------9--9-9-9-9--------------------------|
D|-x-x-x-----\--\-----------------------9--9-9-9-9---------------2----------|
A|---------------------->-7~-7~---------7--7-7-7-7---------------2----------|
E|--------------------0----------------------------0-0-----------0--0-0-0-0-|

For the last chorus, don't forget to play the original
chorus plus the first part of the chorus. And you got it !

Song structure :
Intro (No guitar)
Verse 1 (No guitar)
Pre-chorus (No guitar)
Chorus
Verse 2 (No guitar)
Pre-chorus (No guitar)
Pre-chorus (No guitar)
Chorus
Bridge
Piano chorus (No guitar)
Outro (No guitar)

Signs :
~ : vibrato
b : bend
r : release bend
h : hammer
p : pulling
-> : slide
\ : slide w/ full fingers on the neck
* : harmonic
x : dead/muted note


Go back to tablature