Dig Down (tablature)

MuseWiki, wiki for the band Muse
Jump to: navigation, search

Guitar tab

Tabbed by GiveMeThePiss

Tuning : CADgbe

To start, we've got a background guitar during
"When God (...)" part, where Matt just makes a
vibrato and plays with the volume just to make
ring the sound of the note. You can find how he
does on his [https://www.instagram.com/p/BSg6aI1D9b4/?taken-by=mattbellamy Instagram] :
e|-------------------------|
b|-------------------------|
g|-12~-10~-9~-7~-5~-4~-12~-|
D|-------------------------|
A|-------------------------|
C|-------------------------|

Then comes the chorus, during which you play
nothing, like the second one by the way. For
the second verse, here's what you'll play :
e|-----3-------3-------3-------3-------3-------3---|
b|-------3-------3-------1-------1-------1-------1-|
g|-0-0-----0-0-----0-0-----0-0-----0-0-----0-0-----|
D|-------------------------------------------------|
A|-------------------------------------------------|
C|-------------------------------------------------|

e|-----3-------3-------3-------3-------3-------3---|
b|-------0-------0-------1-------1-------1-------1-|
g|-0-0-----0-0-----0-0-----0-0-----0-0-----0-0-----|
D|-------------------------------------------------|
A|-------------------------------------------------|
C|-------------------------------------------------|

e|-----3-------3-------3-------3-|
b|-------3-------3-------3---3---|
g|-0-0-----0-0-----0-0-----0-----|
D|-------------------------------|
A|-------------------------------|
C|-------------------------------|

After, the solo. Start by putting the volume
on, playing on the 6th string :
e|-------------------------|
b|-------------------------|
g|-------------------------|
D|-------------------------|
A|-------------------------|
C|-9b10-----9~-2~-9b11~-4~-|

e|------------------------------------------------|
b|------------------------------------------------|
g|-4b5r4-2p0-7b9~-11-12-14-15-17-18-19---17--->-5-|
D|------------------------------------------------|
A|------------------------------------------------|
C|------------------------------------------------|
                 |---fast picking for this notes--|

e|-----------------------------------------------------------------------------|
b|-22b24-22b24-22b24-22b24-22b24-22-20-18~-18~-18~-18~-18~-17~-17~-17~-17~-17~-|
g|-----------------------------------------------------------------------------|
D|-----------------------------------------------------------------------------|
A|-----------------------------------------------------------------------------|
C|-----------------------------------------------------------------------------|
(The first bend is slow)

Now, the outro :
e|------------------------------------|
b|------------------------------------|
g|------------------------------------| x2
D|------------------------------------|
A|------------------------------------|
C|-7--7-7-7-7--5--5-5-5-5--0--0-0-0-0-|

Finish on this note :
e|----|
b|----|
g|----|
D|----|
A|----|
C|-7~-|

Except if you want to play these clean
background notes instead :
e|------15---------15---------15---------15-|
b|---15----15---15----15---15----15---15----|
g|-0----------0----------0----------0-------|
D|------------------------------------------|
A|------------------------------------------|
C|------------------------------------------|

And you got it !

Song structure :
Intro (No guitar)
Verse 1
Chorus (No guitar)
Verse 2
Chorus (No guitar)
Solo
Outro

Signs :
~ : vibrato
b : bend
r : release bend
h : hammer
p : pulling
-> : slide


Go back to tablature